  0
SECTION
  2
HEADER
  9
$ACADVER
  1
AC1009
  9
$INSBASE
 10
0.0
 20
0.0
 30
0.0
  9
$EXTMIN
 10
0.0
 20
-10.98536862109507
 30
0.0
  9
$EXTMAX
 10
41.126157570378311
 20
48.787857127119942
 30
0.0
  9
$LIMMIN
 10
0.0
 20
0.0
  9
$LIMMAX
 10
0.0
 20
0.0
  9
$ORTHOMODE
 70
     0
  9
$REGENMODE
 70
     1
  9
$FILLMODE
 70
     1
  9
$QTEXTMODE
 70
     0
  9
$MIRRTEXT
 70
     1
  9
$DRAGMODE
 70
     2
  9
$LTSCALE
 40
1.0
  9
$OSMODE
 70
    37
  9
$ATTMODE
 70
     1
  9
$TEXTSIZE
 40
0.0
  9
$TRACEWID
 40
0.05
  9
$TEXTSTYLE
  7
STANDARD
  9
$CLAYER
  8
0
  9
$CELTYPE
  6
CONTINUOUS
  9
$CECOLOR
 62
   256
  9
$DIMSCALE
 40
1.0
  9
$DIMASZ
 40
0.18
  9
$DIMEXO
 40
0.0625
  9
$DIMDLI
 40
0.38
  9
$DIMRND
 40
0.0
  9
$DIMDLE
 40
0.0
  9
$DIMEXE
 40
0.18
  9
$DIMTP
 40
0.0
  9
$DIMTM
 40
0.0
  9
$DIMTXT
 40
0.18
  9
$DIMCEN
 40
0.09
  9
$DIMTSZ
 40
0.0
  9
$DIMTOL
 70
     0
  9
$DIMLIM
 70
     0
  9
$DIMTIH
 70
     1
  9
$DIMTOH
 70
     1
  9
$DIMSE1
 70
     0
  9
$DIMSE2
 70
     0
  9
$DIMTAD
 70
     0
  9
$DIMZIN
 70
     0
  9
$DIMBLK
  1

  9
$DIMASO
 70
     1
  9
$DIMSHO
 70
     1
  9
$DIMPOST
  1

  9
$DIMAPOST
  1

  9
$DIMALT
 70
     0
  9
$DIMALTD
 70
     2
  9
$DIMALTF
 40
25.399999999999999
  9
$DIMLFAC
 40
1.0
  9
$DIMTOFL
 70
     0
  9
$DIMTVP
 40
0.0
  9
$DIMTIX
 70
     0
  9
$DIMSOXD
 70
     0
  9
$DIMSAH
 70
     0
  9
$DIMBLK1
  1

  9
$DIMBLK2
  1

  9
$DIMSTYLE
  2
STANDARD
  9
$DIMCLRD
 70
     0
  9
$DIMCLRE
 70
     0
  9
$DIMCLRT
 70
     0
  9
$DIMTFAC
 40
1.0
  9
$DIMGAP
 40
0.09
  9
$LUNITS
 70
     2
  9
$LUPREC
 70
     4
  9
$SKETCHINC
 40
0.1
  9
$FILLETRAD
 40
0.0
  9
$AUNITS
 70
     0
  9
$AUPREC
 70
     0
  9
$MENU
  1
acad
  9
$ELEVATION
 40
0.0
  9
$PELEVATION
 40
0.0
  9
$THICKNESS
 40
0.0
  9
$LIMCHECK
 70
     0
  9
$BLIPMODE
 70
     0
  9
$CHAMFERA
 40
0.0
  9
$CHAMFERB
 40
0.0
  9
$SKPOLY
 70
     0
  9
$TDCREATE
 40
2305814.4171760529
  9
$TDUPDATE
 40
2457781.5563209141
  9
$TDINDWG
 40
0.0000276968
  9
$TDUSRTIMER
 40
0.0000276968
  9
$USRTIMER
 70
     1
  9
$ANGBASE
 50
0.0
  9
$ANGDIR
 70
     0
  9
$PDMODE
 70
     0
  9
$PDSIZE
 40
0.0
  9
$PLINEWID
 40
0.0
  9
$COORDS
 70
     1
  9
$SPLFRAME
 70
     0
  9
$SPLINETYPE
 70
     6
  9
$SPLINESEGS
 70
     8
  9
$ATTDIA
 70
     0
  9
$ATTREQ
 70
     1
  9
$HANDLING
 70
     1
  9
$HANDSEED
  5
111
  9
$SURFTAB1
 70
     6
  9
$SURFTAB2
 70
     6
  9
$SURFTYPE
 70
     6
  9
$SURFU
 70
     6
  9
$SURFV
 70
     6
  9
$UCSNAME
  2

  9
$UCSORG
 10
0.0
 20
0.0
 30
0.0
  9
$UCSXDIR
 10
1.0
 20
0.0
 30
0.0
  9
$UCSYDIR
 10
0.0
 20
1.0
 30
0.0
  9
$PUCSNAME
  2

  9
$PUCSORG
 10
0.0
 20
0.0
 30
0.0
  9
$PUCSXDIR
 10
1.0
 20
0.0
 30
0.0
  9
$PUCSYDIR
 10
0.0
 20
1.0
 30
0.0
  9
$USERI1
 70
     0
  9
$USERI2
 70
     0
  9
$USERI3
 70
     0
  9
$USERI4
 70
     0
  9
$USERI5
 70
     0
  9
$USERR1
 40
11.65
  9
$USERR2
 40
0.0
  9
$USERR3
 40
0.0
  9
$USERR4
 40
0.0
  9
$USERR5
 40
0.0
  9
$WORLDVIEW
 70
     1
  9
$SHADEDGE
 70
     3
  9
$SHADEDIF
 70
    70
  9
$TILEMODE
 70
     1
  9
$MAXACTVP
 70
    16
  9
$PLIMCHECK
 70
     0
  9
$PEXTMIN
 10
1.0000000000000000E+020
 20
1.0000000000000000E+020
 30
1.0000000000000000E+020
  9
$PEXTMAX
 10
-1.0000000000000000E+020
 20
-1.0000000000000000E+020
 30
-1.0000000000000000E+020
  9
$PLIMMIN
 10
0.0
 20
0.0
  9
$PLIMMAX
 10
12.0
 20
9.0
  9
$UNITMODE
 70
     0
  9
$VISRETAIN
 70
     0
  9
$PLINEGEN
 70
     1
  9
$PSLTSCALE
 70
     0
  0
ENDSEC
  0
SECTION
  2
TABLES
  0
TABLE
  2
VPORT
 70
     2
  0
VPORT
  2
*ACTIVE
 70
     0
 10
0.0
 20
0.0
 11
1.0
 21
1.0
 12
20.563078785189159
 22
18.901244253012429
 13
0.0
 23
0.0
 14
1.0
 24
1.0
 15
0.0
 25
0.0
 16
0.0
 26
0.0
 36
1.0
 17
0.0
 27
0.0
 37
0.0
 40
60.306122263057951
 41
1.5505952380952379
 42
50.0
 43
0.0
 44
0.0
 50
0.0
 51
0.0
 71
     0
 72
   100
 73
     1
 74
     1
 75
     0
 76
     0
 77
     0
 78
     0
  0
ENDTAB
  0
TABLE
  2
LTYPE
 70
     8
  0
LTYPE
  2
CONTINUOUS
 70
     0
  3
Solid line
 72
    65
 73
     0
 40
0.0
  0
LTYPE
  2
DASHED
 70
     0
  3
Dashed
 72
    65
 73
     2
 40
15.0
 49
12.0
 49
-3.0
  0
LTYPE
  2
DOTTED
 70
     0
  3
Dotted
 72
    65
 73
     2
 40
3.5
 49
0.5
 49
-3.0
  0
LTYPE
  2
DOT_CENTER
 70
     0
  3
Dot_Center
 72
    65
 73
     4
 40
2.0
 49
1.25
 49
-0.25
 49
0.25
 49
-0.25
  0
LTYPE
  2
LONG_DASHED
 70
     0
  3
Long_Dashed
 72
    65
 73
     2
 40
2.0
 49
1.5
 49
-0.5
  0
LTYPE
  2
DASH_CENTER
 70
     0
  3
Dash_Center
 72
    65
 73
     4
 40
36.0
 49
24.0
 49
-3.0
 49
6.0
 49
-3.0
  0
LTYPE
  2
PHANTOM
 70
     0
  3
Phantom
 72
    65
 73
     6
 40
2.5
 49
1.25
 49
-0.25
 49
0.25
 49
-0.25
 49
0.25
 49
-0.25
  0
LTYPE
  2
CENTER_DASH_DASH
 70
     0
  3
Center_Dash_Dash
 72
    65
 73
     6
 40
22.0
 49
12.0
 49
-3.0
 49
0.5
 49
-3.0
 49
0.5
 49
-3.0
  0
ENDTAB
  0
TABLE
  2
LAYER
 70
     2
  0
LAYER
  2
0
 70
     0
 62
     7
  6
CONTINUOUS
  0
LAYER
  2
1
 70
     0
 62
     7
  6
CONTINUOUS
  0
ENDTAB
  0
TABLE
  2
STYLE
 70
     2
  0
STYLE
  2
STANDARD
 70
     0
 40
0.0
 41
1.0
 50
0.0
 71
     0
 42
0.0
  3
txt
  4

  0
STYLE
  2
CONVERTER_1
 70
     0
 40
0.0
 41
0.9
 50
0.0
 71
     0
 42
0.0
  3
txt.shx
  4

  0
ENDTAB
  0
TABLE
  2
VIEW
 70
     0
  0
ENDTAB
  0
TABLE
  2
UCS
 70
     0
  0
ENDTAB
  0
TABLE
  2
APPID
 70
     1
  0
APPID
  2
ACAD
 70
     0
  0
ENDTAB
  0
TABLE
  2
DIMSTYLE
 70
     1
  0
DIMSTYLE
  2
STANDARD
 70
     0
  3

  4

  5

  6

  7

 40
1.0
 41
0.18
 42
0.0625
 43
0.38
 44
0.18
 45
0.0
 46
0.0
 47
0.0
 48
0.0
140
0.18
141
0.09
142
0.0
143
25.399999999999999
144
1.0
145
0.0
146
1.0
147
0.09
 71
     0
 72
     0
 73
     1
 74
     1
 75
     0
 76
     0
 77
     0
 78
     0
170
     0
171
     2
172
     0
173
     0
174
     0
175
     0
176
     0
177
     0
178
     0
  0
ENDTAB
  0
ENDSEC
  0
SECTION
  2
BLOCKS
  0
BLOCK
  8
0
  2
$MODEL_SPACE
 70
     0
 10
0.0
 20
0.0
 30
0.0
  3
$MODEL_SPACE
  1

  0
ENDBLK
  5
E
  8
0
  0
BLOCK
 67
     1
  8
0
  2
$PAPER_SPACE
 70
     0
 10
0.0
 20
0.0
 30
0.0
  3
$PAPER_SPACE
  1

  0
ENDBLK
  5
10
 67
     1
  8
0
  0
BLOCK
  8
0
  2
TOP
 70
     0
 10
0.0
 20
0.0
 30
0.0
  3
TOP
  1

  0
TEXT
  5
EB
  8
1
 62
     7
 10
0.02707097166459
 20
-10.98536862109507
 30
0.0
 40
3.0
  1
IPNOS mattblack
 41
0.9
  7
CONVERTER_1
  0
TEXT
  5
EA
  8
1
 62
     7
 10
0.07186636278268
 20
-6.5626727443464601
 30
0.0
 40
3.0
  1
SST-EU0078
 41
0.9
  7
CONVERTER_1
  0
ARC
  5
E8
  8
1
  6
CONTINUOUS
 62
     7
 10
39.523258345880123
 20
0.21270350349586
 30
0.0
 40
0.04085432606378
 50
36.159475857022713
 51
91.468066643401954
  0
ARC
  5
E7
  8
1
  6
CONTINUOUS
 62
     7
 10
39.516952596171677
 20
0.20245247916469
 30
0.0
 40
0.05219312482185
 50
-31.365984699653289
 51
41.167087851176973
  0
ARC
  5
E6
  8
1
  6
CONTINUOUS
 62
     7
 10
39.534019590912081
 20
0.19532601882827
 30
0.0
 40
0.03402622926482
 50
-136.1974520988355
 51
-36.08349040496519
  0
ARC
  5
E5
  8
1
  6
CONTINUOUS
 62
     7
 10
39.545141797022261
 20
0.21404154610193
 30
0.0
 40
0.0553137550114
 50
163.23375121750399
 51
-130.16915344624229
  0
ARC
  5
E4
  8
1
  6
CONTINUOUS
 62
     7
 10
39.524269792918453
 20
0.21999401854566
 30
0.0
 40
0.03361346886041
 50
93.510371523456215
 51
162.68577988142269
  0
ARC
  5
E3
  8
1
  6
CONTINUOUS
 62
     7
 10
41.02670048421961
 20
2.0526565826740799
 30
0.0
 40
0.10110253656159
 50
-29.199884392103581
 51
49.9022406484751
  0
ARC
  5
E2
  8
1
  6
CONTINUOUS
 62
     7
 10
39.362576335301831
 20
1.7374770668078601
 30
0.0
 40
1.794808605594149
 50
-20.270745607772142
 51
10.7035600745611
  0
ARC
  5
E1
  8
1
  6
CONTINUOUS
 62
     7
 10
40.003788975049027
 20
0.42566500161706
 30
0.0
 40
0.16251502142175
 50
-115.7806840510454
 51
-56.60779453341361
  0
ARC
  5
E0
  8
1
  6
CONTINUOUS
 62
     7
 10
38.488298657456617
 20
0.8281827456699499
 30
0.0
 40
1.62738404758091
 50
-20.302904000004251
 51
11.44813900000158
  0
ARC
  5
DF
  8
1
  6
CONTINUOUS
 62
     7
 10
40.072519353150021
 20
1.31333965413242
 30
0.0
 40
0.16251036125623
 50
-115.78145400001399
 51
-56.606898000008442
  0
ARC
  5
DE
  8
1
  6
CONTINUOUS
 62
     7
 10
38.827811053135001
 20
2.796457992835959
 30
0.0
 40
0.31319081884915
 50
74.253222319402241
 51
119.2606837945922
  0
ARC
  5
DD
  8
1
  6
CONTINUOUS
 62
     7
 10
37.967197407064603
 20
1.4345837217313699
 30
0.0
 40
0.18794002107733
 50
-178.00806509043611
 51
-138.7028479430121
  0
ARC
  5
DC
  8
1
  6
CONTINUOUS
 62
     7
 10
38.035924810650009
 20
2.3222628966324601
 30
0.0
 40
0.18793770356252
 50
142.6861120000134
 51
-138.70251000000729
  0
ARC
  5
DB
  8
1
  6
CONTINUOUS
 62
     7
 10
36.196837424924801
 20
4.5876748435407304
 30
0.0
 40
0.9732449174780899
 50
13.85956131988271
 51
42.15065218144921
  0
ARC
  5
DA
  8
1
  6
CONTINUOUS
 62
     7
 10
36.434637231117172
 20
4.6883203581448303
 30
0.0
 40
0.7194147004620501
 50
-21.754533564608831
 51
10.61223930227751
  0
ARC
  5
D9
  8
1
  6
CONTINUOUS
 62
     7
 10
35.8543332183743
 20
4.893996992787379
 30
0.0
 40
1.33483639500634
 50
-39.667226560966512
 51
-20.722159207897469
  0
ARC
  5
D8
  8
1
  6
CONTINUOUS
 62
     7
 10
28.48468112704083
 20
10.63113271756901
 30
0.0
 40
10.67379367638253
 50
-40.05202097192079
 51
-38.121046857358003
  0
ARC
  5
D7
  8
1
  6
CONTINUOUS
 62
     7
 10
36.954686107014247
 20
3.5222751134652501
 30
0.0
 40
0.3841884979949699
 50
141.2535049149071
 51
158.5517994656
  0
ARC
  5
D6
  8
1
  6
CONTINUOUS
 62
     7
 10
36.651224714655292
 20
3.6461833313620691
 30
0.0
 40
0.05660244449495
 50
162.97336433947279
 51
-149.26490704698861
  0
ARC
  5
D5
  8
1
  6
CONTINUOUS
 62
     7
 10
36.6793942641306
 20
3.6780703480133701
 30
0.0
 40
0.09797956415125
 50
-141.6335632158345
 51
-107.5266483601936
  0
ARC
  5
D4
  8
1
  6
CONTINUOUS
 62
     7
 10
37.110002124245817
 20
4.8785212770574891
 30
0.0
 40
1.3732573695160399
 50
-109.5757759335761
 51
-100.1252016709371
  0
ARC
  5
D3
  8
1
  6
CONTINUOUS
 62
     7
 10
36.370182264412563
 20
1.3992728863820201
 30
0.0
 40
2.1849810364831201
 50
61.821405640425212
 51
76.814564395648304
  0
ARC
  5
D2
  8
1
  6
CONTINUOUS
 62
     7
 10
36.381818608655649
 20
1.4583272355947701
 30
0.0
 40
2.1275039255603101
 50
51.014610241973429
 51
61.346619623490589
  0
ARC
  5
D1
  8
1
  6
CONTINUOUS
 62
     7
 10
36.141047826818301
 20
1.1517706978069391
 30
0.0
 40
2.51727300532924
 50
43.575501097485457
 51
51.144549813098692
  0
ARC
  5
D0
  8
1
  6
CONTINUOUS
 62
     7
 10
37.978857019565787
 20
2.8060025829076589
 30
0.0
 40
0.08217291961441
 50
99.900631284326451
 51
-162.99484361520021
  0
ARC
  5
CF
  8
1
  6
CONTINUOUS
 62
     7
 10
36.27281479698209
 20
1.01644048955479
 30
0.0
 40
2.403139574138029
 50
41.072600320526277
 51
67.187228319332263
  0
ARC
  5
CE
  8
1
  6
CONTINUOUS
 62
     7
 10
72.395616793008671
 20
90.526212796124085
 30
0.0
 40
94.120985691864306
 50
-112.25861565115849
 51
-111.95582890488321
  0
ARC
  5
CD
  8
1
  6
CONTINUOUS
 62
     7
 10
36.966601010990658
 20
3.88063450642756
 30
0.0
 40
0.51280636117032
 50
-139.2079577918345
 51
-115.75966346691671
  0
ARC
  5
CC
  8
1
  6
CONTINUOUS
 62
     7
 10
36.772338494672539
 20
3.6884130852381491
 30
0.0
 40
0.24087199528614
 50
163.14903214791431
 51
-143.63991233489551
  0
ARC
  5
CB
  8
1
  6
CONTINUOUS
 62
     7
 10
37.049701470660402
 20
3.5751290702604499
 30
0.0
 40
0.5398921430000999
 50
126.3385048753758
 51
160.1744125438301
  0
ARC
  5
CA
  8
1
  6
CONTINUOUS
 62
     7
 10
38.448502470905751
 20
2.110668997464499
 30
0.0
 40
2.5615529208374301
 50
125.8761942168538
 51
132.14171589918729
  0
ARC
  5
C9
  8
1
  6
CONTINUOUS
 62
     7
 10
36.516688554959359
 20
4.7865592027538302
 30
0.0
 40
0.7387988030155699
 50
-54.344604386603059
 51
-33.922288784911323
  0
ARC
  5
C8
  8
1
  6
CONTINUOUS
 62
     7
 10
36.848247590484
 20
4.5351023589490804
 30
0.0
 40
0.32420463014592
 50
-29.743364928933602
 51
16.93041379189237
  0
ARC
  5
C7
  8
1
  6
CONTINUOUS
 62
     7
 10
35.845876415079019
 20
4.2160507025133187
 30
0.0
 40
1.3761077208686701
 50
17.485145562474031
 51
24.789431135480751
  0
ARC
  5
C6
  8
1
  6
CONTINUOUS
 62
     7
 10
35.640909672704062
 20
3.9830916123126099
 30
0.0
 40
1.66460565720979
 50
29.115099242497141
 51
46.125519980601467
  0
ARC
  5
C5
  8
1
  6
CONTINUOUS
 62
     7
 10
34.520041326585492
 20
9.5583840850081199
 30
0.0
 40
3.1541208277983701
 50
53.566640333685058
 51
68.776288372361833
  0
ARC
  5
C4
  8
1
  6
CONTINUOUS
 62
     7
 10
35.613278032185903
 20
11.189806024393381
 30
0.0
 40
1.1956447162668791
 50
32.799713129462752
 51
49.282427203898642
  0
ARC
  5
C3
  8
1
  6
CONTINUOUS
 62
     7
 10
36.257299908899647
 20
11.63537466320561
 30
0.0
 40
0.4137300014703401
 50
-17.091374761214709
 51
29.243591191427701
  0
ARC
  5
C2
  8
1
  6
CONTINUOUS
 62
     7
 10
35.53331521389525
 20
11.892828659872761
 30
0.0
 40
1.1818757976388099
 50
-38.652425015869007
 51
-18.70629717925874
  0
ARC
  5
C1
  8
1
  6
CONTINUOUS
 62
     7
 10
28.137640830836759
 20
17.520276269321659
 30
0.0
 40
10.47480195313722
 50
-42.276661246769649
 51
-37.42409593546197
  0
ARC
  5
C0
  8
1
  6
CONTINUOUS
 62
     7
 10
39.333112315657303
 20
7.5767163570554201
 30
0.0
 40
4.5012946077002187
 50
139.9390387109535
 51
149.53225095906839
  0
ARC
  5
BF
  8
1
  6
CONTINUOUS
 62
     7
 10
37.738273659456382
 20
8.6099140232913882
 30
0.0
 40
2.6040804071306889
 50
151.3336586188592
 51
170.56747934991881
  0
ARC
  5
BE
  8
1
  6
CONTINUOUS
 62
     7
 10
39.08555782258162
 20
8.6492613247762797
 30
0.0
 40
3.9352728608792589
 50
174.35011992080379
 51
-178.38604744761651
  0
ARC
  5
BD
  8
1
  6
CONTINUOUS
 62
     7
 10
37.675063899757902
 20
8.4971497150941389
 30
0.0
 40
2.52355531779952
 50
179.0628479927901
 51
-164.3316983221778
  0
ARC
  5
BC
  8
1
  6
CONTINUOUS
 62
     7
 10
40.444170290389671
 20
8.9616677350805514
 30
0.0
 40
5.3237094639788101
 50
-167.56847619987349
 51
-156.3690615106423
  0
ARC
  5
BB
  8
1
  6
CONTINUOUS
 62
     7
 10
44.683789934837733
 20
10.714905438233259
 30
0.0
 40
9.9110344994913806
 50
-156.90787550093279
 51
-149.18547569014419
  0
ARC
  5
BA
  8
1
  6
CONTINUOUS
 62
     7
 10
46.136545281125109
 20
11.475476243598751
 30
0.0
 40
11.40976226214004
 50
-155.9547020002054
 51
-149.5716344748657
  0
ARC
  5
B9
  8
1
  6
CONTINUOUS
 62
     7
 10
41.575776157944567
 20
9.5351408202989791
 30
0.0
 40
6.4547313768661301
 50
-165.26319745429629
 51
-155.1880533210402
  0
ARC
  5
B8
  8
1
  6
CONTINUOUS
 62
     7
 10
38.492564215465038
 20
8.7027190662410892
 30
0.0
 40
3.2612581899051101
 50
179.9811456584923
 51
-165.62746586835939
  0
ARC
  5
B7
  8
1
  6
CONTINUOUS
 62
     7
 10
37.2814876262496
 20
8.6809216440612804
 30
0.0
 40
2.050308985586009
 50
151.6735579131192
 51
179.3608688469831
  0
ARC
  5
B6
  8
1
  6
CONTINUOUS
 62
     7
 10
39.785433036521312
 20
7.2881955021256504
 30
0.0
 40
4.9154147640238488
 50
140.5883173837218
 51
151.2323532086169
  0
ARC
  5
B5
  8
1
  6
CONTINUOUS
 62
     7
 10
29.39970590023816
 20
15.985419492899011
 30
0.0
 40
8.6313205340313104
 50
-40.246370434444898
 51
-33.947195003132649
  0
ARC
  5
B4
  8
1
  6
CONTINUOUS
 62
     7
 10
35.502339160376501
 20
11.8789620519374
 30
0.0
 40
1.27570275849447
 50
-34.008394137946212
 51
-11.549793962830901
  0
ARC
  5
B3
  8
1
  6
CONTINUOUS
 62
     7
 10
36.217401251478293
 20
11.69137933835189
 30
0.0
 40
0.53909432669151
 50
-7.229074491871379
 51
36.253705436922338
  0
ARC
  5
B2
  8
1
  6
CONTINUOUS
 62
     7
 10
35.66185324239153
 20
11.295902550160969
 30
0.0
 40
1.2209994983985191
 50
35.80251984634981
 51
62.344845827668209
  0
ARC
  5
B1
  8
1
  6
CONTINUOUS
 62
     7
 10
34.421080433604907
 20
9.316248918068581
 30
0.0
 40
3.5549637942057499
 50
59.43978965856823
 51
69.170860125415558
  0
ARC
  5
B0
  8
1
  6
CONTINUOUS
 62
     7
 10
34.193663918586239
 20
11.43983865350029
 30
0.0
 40
2.1958676804813191
 50
100.1135837544083
 51
109.8566027382854
  0
ARC
  5
AF
  8
1
  6
CONTINUOUS
 62
     7
 10
33.883588317567629
 20
12.314325024299441
 30
0.0
 40
1.2680622562855799
 50
110.10032997839269
 51
123.6158659884496
  0
ARC
  5
AE
  8
1
  6
CONTINUOUS
 62
     7
 10
33.504152575880283
 20
12.89401678683574
 30
0.0
 40
0.5752707670770799
 50
124.108710864174
 51
146.8777043520048
  0
ARC
  5
AD
  8
1
  6
CONTINUOUS
 62
     7
 10
34.892466490312373
 20
13.351124408108371
 30
0.0
 40
0.22032964968327
 50
16.116434119185872
 51
61.20033581471364
  0
ARC
  5
AC
  8
1
  6
CONTINUOUS
 62
     7
 10
34.552648326499209
 20
12.87747220764005
 30
0.0
 40
0.8021281537255699
 50
56.222236540532073
 51
82.375781448400545
  0
ARC
  5
AB
  8
1
  6
CONTINUOUS
 62
     7
 10
34.355992856253742
 20
12.06086470797541
 30
0.0
 40
1.639894589301089
 50
79.349618033958308
 51
92.094344442074245
  0
ARC
  5
AA
  8
1
  6
CONTINUOUS
 62
     7
 10
34.333763353224548
 20
12.220681889070709
 30
0.0
 40
1.4794624005112791
 50
91.460203709706875
 51
109.0799083935467
  0
ARC
  5
A9
  8
1
  6
CONTINUOUS
 62
     7
 10
34.104637843537873
 20
12.940987958870441
 30
0.0
 40
0.72407654920857
 50
110.5772210759294
 51
122.1171302306922
  0
ARC
  5
A8
  8
1
  6
CONTINUOUS
 62
     7
 10
33.904163410443857
 20
13.26199428580103
 30
0.0
 40
0.34561455966006
 50
122.2612211618756
 51
145.54711504785331
  0
ARC
  5
A7
  8
1
  6
CONTINUOUS
 62
     7
 10
33.74610232102642
 20
13.37457200623132
 30
0.0
 40
0.15162866438453
 50
146.8361391065589
 51
-146.45114663107259
  0
ARC
  5
A6
  8
1
  6
CONTINUOUS
 62
     7
 10
33.868706801763309
 20
13.451680507126239
 30
0.0
 40
0.29644349809526
 50
-147.12641922991119
 51
-121.87405925806701
  0
ARC
  5
A5
  8
1
  6
CONTINUOUS
 62
     7
 10
34.133632900136639
 20
13.851935169024721
 30
0.0
 40
0.77635887835998
 50
-122.87942898550629
 51
-102.06529170553129
  0
ARC
  5
A4
  8
1
  6
CONTINUOUS
 62
     7
 10
34.341331082989491
 20
14.61358684388702
 30
0.0
 40
1.565215958870289
 50
-103.6726736231121
 51
-88.423195584062199
  0
ARC
  5
A3
  8
1
  6
CONTINUOUS
 62
     7
 10
34.356130970205882
 20
14.700164892486629
 30
0.0
 40
1.651443305222499
 50
-89.019139228708383
 51
-79.075527061020736
  0
ARC
  5
A2
  8
1
  6
CONTINUOUS
 62
     7
 10
34.486322193876518
 20
14.075054695082009
 30
0.0
 40
1.013031556514369
 50
-79.605162560284739
 51
-63.32412176902811
  0
ARC
  5
A1
  8
1
  6
CONTINUOUS
 62
     7
 10
34.769372104513742
 20
13.51870911117917
 30
0.0
 40
0.3888426987992
 50
-63.788991402170502
 51
-37.09201521578575
  0
ARC
  5
A0
  8
1
  6
CONTINUOUS
 62
     7
 10
34.948691007718949
 20
13.37573242033756
 30
0.0
 40
0.15968604085855
 50
-34.97414263485377
 51
13.23276454777916
  0
ARC
  5
9F
  8
1
  6
CONTINUOUS
 62
     7
 10
34.963270945369679
 20
13.097145872506291
 30
0.0
 40
0.14596023940067
 50
-26.871309765457301
 51
5.7148914392872401
  0
ARC
  5
9E
  8
1
  6
CONTINUOUS
 62
     7
 10
34.866352991491368
 20
13.146040544219639
 30
0.0
 40
0.25451325817345
 50
-56.221270780115788
 51
-26.828415091473481
  0
ARC
  5
9D
  8
1
  6
CONTINUOUS
 62
     7
 10
34.64215212261918
 20
13.44045155155554
 30
0.0
 40
0.6242893701199599
 50
-70.954751008860086
 51
-54.140672991469749
  0
ARC
  5
9C
  8
1
  6
CONTINUOUS
 62
     7
 10
34.415338760218361
 20
14.04491168120339
 30
0.0
 40
1.2697904761325891
 50
-85.661158654419765
 51
-70.180718991171773
  0
ARC
  5
9B
  8
1
  6
CONTINUOUS
 62
     7
 10
34.3522154713893
 20
14.5060739624194
 30
0.0
 40
1.7346335353445499
 50
-97.639009662988855
 51
-84.734504824958449
  0
ARC
  5
9A
  8
1
  6
CONTINUOUS
 62
     7
 10
34.300880010093458
 20
14.1213818339619
 30
0.0
 40
1.346531386783149
 50
-108.11498814690169
 51
-97.649975965597989
  0
ARC
  5
99
  8
1
  6
CONTINUOUS
 62
     7
 10
34.10713603773597
 20
13.52599375886405
 30
0.0
 40
0.7204148711026801
 50
-125.2554719167243
 51
-108.1929399497281
  0
ARC
  5
98
  8
1
  6
CONTINUOUS
 62
     7
 10
33.874029229295573
 20
13.181512365461501
 30
0.0
 40
0.30467971926348
 50
-147.013126904947
 51
-126.8523924735151
  0
ARC
  5
97
  8
1
  6
CONTINUOUS
 62
     7
 10
33.753724739553228
 20
13.100318508172171
 30
0.0
 40
0.15958440677079
 50
-178.48951719642409
 51
-147.94866897805881
  0
ARC
  5
96
  8
1
  6
CONTINUOUS
 62
     7
 10
33.208590266179542
 20
12.609225338460449
 30
0.0
 40
0.22828822028456
 50
165.97524296894659
 51
-168.06024836332091
  0
ARC
  5
95
  8
1
  6
CONTINUOUS
 62
     7
 10
33.317462288011939
 20
12.630422475593701
 30
0.0
 40
0.33919489632354
 50
-168.3618039580077
 51
-130.3285723608881
  0
ARC
  5
94
  8
1
  6
CONTINUOUS
 62
     7
 10
33.683389496853692
 20
13.00118981466651
 30
0.0
 40
0.8595507368016999
 50
-132.9300224914584
 51
-112.4139866038812
  0
ARC
  5
93
  8
1
  6
CONTINUOUS
 62
     7
 10
34.102258339490682
 20
13.900329383920649
 30
0.0
 40
1.8510082862446291
 50
-113.7880401042116
 51
-99.917394217742782
  0
ARC
  5
92
  8
1
  6
CONTINUOUS
 62
     7
 10
34.328881974965498
 20
15.01201663146629
 30
0.0
 40
2.9852837496240401
 50
-100.5272238263162
 51
-75.888332381008595
  0
ARC
  5
91
  8
1
  6
CONTINUOUS
 62
     7
 10
34.739060723666491
 20
13.418718602358849
 30
0.0
 40
1.340093454188479
 50
-76.28743450168669
 51
-53.977386729334249
  0
ARC
  5
90
  8
1
  6
CONTINUOUS
 62
     7
 10
35.22648165115276
 20
12.7222936790982
 30
0.0
 40
0.4904213597233401
 50
-52.183532710226672
 51
-30.110046049358662
  0
ARC
  5
8F
  8
1
  6
CONTINUOUS
 62
     7
 10
35.397590324823781
 20
12.61665511783877
 30
0.0
 40
0.28945972060592
 50
-29.01234598715061
 51
-5.4749057751353796
  0
ARC
  5
8E
  8
1
  6
CONTINUOUS
 62
     7
 10
34.500141181105469
 20
11.53303387816705
 30
0.0
 40
2.099149122143869
 50
69.831895605110887
 51
78.427421568901934
  0
ARC
  5
8D
  8
1
  6
CONTINUOUS
 62
     7
 10
34.78020965650424
 20
12.306438086363549
 30
0.0
 40
1.276610833186409
 50
56.662150471804111
 51
69.663372234239318
  0
ARC
  5
8C
  8
1
  6
CONTINUOUS
 62
     7
 10
35.173759628203662
 20
12.91018806506152
 30
0.0
 40
0.5559342621764399
 50
29.13410829888155
 51
56.351248017305537
  0
ARC
  5
8B
  8
1
  6
CONTINUOUS
 62
     7
 10
35.421043874561967
 20
13.065211947231941
 30
0.0
 40
0.26488769143194
 50
-13.665075198436361
 51
25.883728973603169
  0
ARC
  5
8A
  8
1
  6
CONTINUOUS
 62
     7
 10
35.353949485395503
 20
13.086665098292221
 30
0.0
 40
0.33518830059978
 50
-47.420882668286652
 51
-14.51895131547745
  0
ARC
  5
89
  8
1
  6
CONTINUOUS
 62
     7
 10
34.952556489025341
 20
13.482198438887391
 30
0.0
 40
0.8984569809399399
 50
-73.822757419652916
 51
-45.638675591200247
  0
ARC
  5
88
  8
1
  6
CONTINUOUS
 62
     7
 10
34.409840082571733
 20
14.91835526608333
 30
0.0
 40
2.43197134660655
 50
-87.233038721978133
 51
-70.968532445636441
  0
ARC
  5
87
  8
1
  6
CONTINUOUS
 62
     7
 10
34.337130833104581
 20
15.48849948168275
 30
0.0
 40
3.0052992512607291
 50
-102.9733165926578
 51
-86.373151177550426
  0
ARC
  5
86
  8
1
  6
CONTINUOUS
 62
     7
 10
34.049268177808379
 20
14.19178373613366
 30
0.0
 40
1.6770916229436801
 50
-119.0240182165949
 51
-103.3352582799788
  0
ARC
  5
85
  8
1
  6
CONTINUOUS
 62
     7
 10
33.56181407872095
 20
13.29476175175188
 30
0.0
 40
0.65628113776985
 50
-144.47724705736411
 51
-119.80766971399849
  0
ARC
  5
84
  8
1
  6
CONTINUOUS
 62
     7
 10
33.250061192674572
 20
13.064960296634229
 30
0.0
 40
0.26909410476856
 50
147.79833304514699
 51
-145.73258603564179
  0
ARC
  5
83
  8
1
  6
CONTINUOUS
 62
     7
 10
43.584761573090091
 20
-8.1904640142753795
 30
0.0
 40
24.170301162972429
 50
124.3623245148583
 51
127.9721539750871
  0
ARC
  5
82
  8
1
  6
CONTINUOUS
 62
     7
 10
36.639985612793723
 20
1.29886935464676
 30
0.0
 40
12.42291565356475
 50
116.14403219127171
 51
122.62423276245811
  0
ARC
  5
81
  8
1
  6
CONTINUOUS
 62
     7
 10
33.29038489579986
 20
8.0887255721061209
 30
0.0
 40
4.85182661369298
 50
103.60248843009489
 51
115.9658127742036
  0
ARC
  5
80
  8
1
  6
CONTINUOUS
 62
     7
 10
33.27187931258031
 20
8.5403379463104585
 30
0.0
 40
4.4094121067908487
 50
93.720047965130917
 51
104.7489664186069
  0
ARC
  5
7F
  8
1
  6
CONTINUOUS
 62
     7
 10
33.331708894952129
 20
8.1944871231222312
 30
0.0
 40
4.8974295894536102
 50
94.058119347821162
 51
107.0708119117664
  0
ARC
  5
7E
  8
1
  6
CONTINUOUS
 62
     7
 10
33.759319505474778
 20
6.7888493317334691
 30
0.0
 40
6.366666460269518
 50
107.0360880642417
 51
118.5013117405163
  0
ARC
  5
7D
  8
1
  6
CONTINUOUS
 62
     7
 10
35.574922136873681
 20
3.2866832277648701
 30
0.0
 40
10.311036063338079
 50
118.0812355785866
 51
124.4932309517331
  0
ARC
  5
7C
  8
1
  6
CONTINUOUS
 62
     7
 10
41.074962344480163
 20
-4.8242469432520094
 30
0.0
 40
20.11082037990645
 50
124.3217306943538
 51
127.9284791285083
  0
LINE
  5
7B
  8
1
  6
CONTINUOUS
 62
     7
 10
38.2805904328875
 20
2.7529370241699498
 30
0.0
 11
37.96472821153133
 21
2.8869517367110298
 31
0.0
  0
LINE
  5
7A
  8
1
  6
CONTINUOUS
 62
     7
 10
35.686060642912501
 20
13.054179311376201
 30
0.0
 11
35.685729553664117
 21
12.58903782875112
 31
0.0
  0
LINE
  5
79
  8
1
  6
CONTINUOUS
 62
     7
 10
35.108505721904152
 20
13.11168035463974
 30
0.0
 11
35.107496561901293
 21
13.35898644751059
 31
0.0
  0
LINE
  5
78
  8
1
  6
CONTINUOUS
 62
     7
 10
32.984978235525013
 20
13.110601127507451
 30
0.0
 11
32.987107065881261
 21
12.66454896366996
 31
0.0
  0
LINE
  5
77
  8
1
  6
CONTINUOUS
 62
     7
 10
33.59419578534375
 20
13.09611188800746
 30
0.0
 11
33.594190642525952
 21
13.37084521461534
 31
0.0
  0
LINE
  5
76
  8
1
  6
CONTINUOUS
 62
     7
 10
39.423659498662509
 20
0.18400180454495
 30
0.0
 11
39.442079465156247
 21
0.09169308168245
 31
0.0
  0
LINE
  5
75
  8
1
  6
CONTINUOUS
 62
     7
 10
39.449370376406257
 20
0.5160675147137001
 30
0.0
 11
39.423659498662509
 21
0.18400180454495
 31
0.0
  0
LINE
  5
74
  8
1
  6
CONTINUOUS
 62
     7
 10
39.442079465156247
 20
0.09169308168245
 30
0.0
 11
39.586491007200003
 21
0.0135698103512
 31
0.0
  0
LINE
  5
73
  8
1
  6
CONTINUOUS
 62
     7
 10
39.586491007200003
 20
0.0135698103512
 30
0.0
 11
39.623981914406258
 21
0.0606621533012
 31
0.0
  0
LINE
  5
72
  8
1
  6
CONTINUOUS
 62
     7
 10
39.586491007200003
 20
0.0135698103512
 30
0.0
 11
39.637197559012499
 21
0.05750217978245
 31
0.0
  0
LINE
  5
71
  8
1
  6
CONTINUOUS
 62
     7
 10
39.637197559012499
 20
0.05750217978245
 30
0.0
 11
39.674689044862497
 21
0.10459452273245
 31
0.0
  0
LINE
  5
70
  8
1
  6
CONTINUOUS
 62
     7
 10
39.623981914406258
 20
0.0606621533012
 30
0.0
 11
39.674689044862497
 21
0.10459452273245
 31
0.0
  0
LINE
  5
6F
  8
1
  6
CONTINUOUS
 62
     7
 10
39.697158360318753
 20
0.3947999867387
 30
0.0
 11
39.674689044862497
 21
0.10459452273245
 31
0.0
  0
LINE
  5
6E
  8
1
  6
CONTINUOUS
 62
     7
 10
39.651580328062501
 20
0.4171055460137
 30
0.0
 11
39.623981914406258
 21
0.0606621533012
 31
0.0
  0
LINE
  5
6D
  8
1
  6
CONTINUOUS
 62
     7
 10
40.161961474875
 20
1.177657531701199
 30
0.0
 11
41.114955327075002
 21
2.00333297823245
 31
0.0
  0
LINE
  5
6C
  8
1
  6
CONTINUOUS
 62
     7
 10
40.093231906181252
 20
0.2899775141387
 30
0.0
 11
41.04622517973749
 21
1.115653539313699
 31
0.0
  0
LINE
  5
6B
  8
1
  6
CONTINUOUS
 62
     7
 10
37.8259986445875
 20
1.3105500126136991
 30
0.0
 11
39.933106714462497
 21
0.2793258399887
 31
0.0
  0
LINE
  5
6A
  8
1
  6
CONTINUOUS
 62
     7
 10
37.848100521262502
 20
2.3157305873387002
 30
0.0
 11
37.779370952568748
 21
1.4280511484199501
 31
0.0
  0
LINE
  5
69
  8
1
  6
CONTINUOUS
 62
     7
 10
37.89472879192499
 20
2.1982294515324501
 30
0.0
 11
40.001836861800001
 21
1.167005857551199
 31
0.0
  0
LINE
  5
68
  8
1
  6
CONTINUOUS
 62
     7
 10
41.091819992662501
 20
2.1299946232449489
 30
0.0
 11
38.912806757193749
 21
3.0978949170886989
 31
0.0
  0
LINE
  5
67
  8
1
  6
CONTINUOUS
 62
     7
 10
38.67472841540625
 20
3.0696871915637001
 30
0.0
 11
37.8864530290125
 21
2.4361868567761999
 31
0.0
  0
LINE
  5
66
  8
1
  6
CONTINUOUS
 62
     7
 10
35.359753595343761
 20
4.5133836739262003
 30
0.0
 11
38.34098405971875
 21
5.9047343067324496
 31
0.0
  0
LINE
  5
65
  8
1
  6
CONTINUOUS
 62
     7
 10
34.807713570393751
 20
5.0012046582136991
 30
0.0
 11
37.788944613412497
 21
6.3925552910199501
 31
0.0
  0
LINE
  5
64
  8
1
  6
CONTINUOUS
 62
     7
 10
0.0
 20
44.161374674807448
 30
0.0
 11
14.863353515549999
 21
39.436191222126197
 31
0.0
  0
LINE
  5
63
  8
1
  6
CONTINUOUS
 62
     7
 10
14.863353515549999
 20
39.436191222126197
 30
0.0
 11
28.713296984962501
 21
44.948905925338678
 31
0.0
  0
LINE
  5
62
  8
1
  6
CONTINUOUS
 62
     7
 10
28.713296984962501
 20
44.948905925338678
 30
0.0
 11
13.4540608759875
 21
48.787857127119942
 31
0.0
  0
LINE
  5
61
  8
1
  6
CONTINUOUS
 62
     7
 10
0.0
 20
44.161374674807448
 30
0.0
 11
13.4540608759875
 21
48.787857127119942
 31
0.0
  0
LINE
  5
60
  8
1
  6
CONTINUOUS
 62
     7
 10
14.863353515549999
 20
5.2260604116699501
 30
0.0
 11
28.713296984962501
 21
10.7387756935262
 31
0.0
  0
LINE
  5
5F
  8
1
  6
CONTINUOUS
 62
     7
 10
0.0
 20
9.9512438643511985
 30
0.0
 11
14.863353515549999
 21
5.2260604116699501
 31
0.0
  0
LINE
  5
5E
  8
1
  6
CONTINUOUS
 62
     7
 10
0.0
 20
44.161374674807448
 30
0.0
 11
0.0
 21
9.2480262159886983
 31
0.0
  0
LINE
  5
5D
  8
1
  6
CONTINUOUS
 62
     7
 10
14.863353515549999
 20
38.703220869426197
 30
0.0
 11
14.863353515549999
 21
4.5228421846637001
 31
0.0
  0
LINE
  5
5C
  8
1
  6
CONTINUOUS
 62
     7
 10
28.713296984962501
 20
44.948905925338678
 30
0.0
 11
28.713296984962501
 21
10.0058053408262
 31
0.0
  0
LINE
  5
5B
  8
1
  6
CONTINUOUS
 62
     7
 10
14.847067587206251
 20
39.894729939444943
 30
0.0
 11
27.311634920531251
 21
44.856022030588683
 31
0.0
  0
LINE
  5
5A
  8
1
  6
CONTINUOUS
 62
     7
 10
14.863353515549999
 20
38.703220869426197
 30
0.0
 11
28.713296984962501
 21
44.215936151282449
 31
0.0
  0
LINE
  5
59
  8
1
  6
CONTINUOUS
 62
     7
 10
0.0
 20
43.458156447801187
 30
0.0
 11
14.863353515549999
 21
38.732972995119951
 31
0.0
  0
LINE
  5
58
  8
1
  6
CONTINUOUS
 62
     7
 10
13.4540608759875
 20
48.787857127119942
 30
0.0
 11
13.473152069231251
 21
48.337536886982441
 31
0.0
  0
LINE
  5
57
  8
1
  6
CONTINUOUS
 62
     7
 10
28.713296984962501
 20
44.948905925338678
 30
0.0
 11
27.311634920531251
 21
44.856022030588683
 31
0.0
  0
LINE
  5
56
  8
1
  6
CONTINUOUS
 62
     7
 10
0.0
 20
44.161374674807448
 30
0.0
 11
1.3754500811999999
 21
44.177469072069947
 31
0.0
  0
LINE
  5
55
  8
1
  6
CONTINUOUS
 62
     7
 10
14.863353515549999
 20
39.436191222126197
 30
0.0
 11
14.847067587206251
 21
39.894729939444943
 31
0.0
  0
LINE
  5
54
  8
1
  6
CONTINUOUS
 62
     7
 10
1.3754500811999999
 20
44.177469072069947
 30
0.0
 11
13.473152069231251
 21
48.337536886982441
 31
0.0
  0
LINE
  5
53
  8
1
  6
CONTINUOUS
 62
     7
 10
1.3754500811999999
 20
44.177469072069947
 30
0.0
 11
14.847067587206251
 21
39.894729939444943
 31
0.0
  0
LINE
  5
52
  8
1
  6
CONTINUOUS
 62
     7
 10
13.473152069231251
 20
48.337536886982441
 30
0.0
 11
13.473152069231251
 21
47.880651354857449
 31
0.0
  0
LINE
  5
51
  8
1
  6
CONTINUOUS
 62
     7
 10
27.311634920531251
 20
44.856022030588683
 30
0.0
 11
13.473152069231251
 21
48.337536886982441
 31
0.0
  0
LINE
  5
50
  8
1
  6
CONTINUOUS
 62
     7
 10
28.027477996875
 20
10.4657981898887
 30
0.0
 11
15.496592882006251
 21
13.618344237463701
 31
0.0
  0
LINE
  5
4F
  8
1
  6
CONTINUOUS
 62
     7
 10
13.473152069231251
 20
14.127406076526199
 30
0.0
 11
13.473152069231251
 21
13.670520544401199
 31
0.0
  0
LINE
  5
4E
  8
1
  6
CONTINUOUS
 62
     7
 10
1.3754500811999999
 20
9.9673382616136994
 30
0.0
 11
13.473152069231251
 21
14.127406076526199
 31
0.0
  0
LINE
  5
4D
  8
1
  6
CONTINUOUS
 62
     7
 10
1.3754500811999999
 20
9.5104533081324494
 30
0.0
 11
1.380774760987499
 21
9.5122841369574491
 31
0.0
  0
LINE
  5
4C
  8
1
  6
CONTINUOUS
 62
     7
 10
14.863353515549999
 20
5.2260604116699501
 30
0.0
 11
28.713296984962501
 21
10.7387756935262
 31
0.0
  0
LINE
  5
4B
  8
1
  6
CONTINUOUS
 62
     7
 10
0.0
 20
9.9512438643511985
 30
0.0
 11
14.863353515549999
 21
5.2260604116699501
 31
0.0
  0
LINE
  5
4A
  8
1
  6
CONTINUOUS
 62
     7
 10
13.473152069231251
 20
48.337536886982441
 30
0.0
 11
13.473152069231251
 21
40.331508758544963
 31
0.0
  0
LINE
  5
49
  8
1
  6
CONTINUOUS
 62
     7
 10
14.221348853568751
 20
38.93707106133246
 30
0.0
 11
14.221348853568751
 21
5.4301584778824488
 31
0.0
  0
LINE
  5
48
  8
1
  6
CONTINUOUS
 62
     7
 10
15.496592882006251
 20
38.955270564557452
 30
0.0
 11
15.496592882006251
 21
5.4781095281574501
 31
0.0
  0
LINE
  5
47
  8
1
  6
CONTINUOUS
 62
     7
 10
0.7300198482187501
 20
43.2260774844137
 30
0.0
 11
0.7300198482187501
 21
9.7191649009636993
 31
0.0
  0
LINE
  5
46
  8
1
  6
CONTINUOUS
 62
     7
 10
28.027477996875
 20
43.942958647644957
 30
0.0
 11
28.027477996875
 21
10.4657981898887
 31
0.0
  0
LINE
  5
45
  8
1
  6
CONTINUOUS
 62
     7
 10
0.66424657044375
 20
44.389790823257428
 30
0.0
 11
0.0
 21
44.161374674807448
 31
0.0
  0
LINE
  5
44
  8
1
  6
CONTINUOUS
 62
     7
 10
0.0
 20
44.161374674807448
 30
0.0
 11
0.7609032224437501
 21
43.919477284269959
 31
0.0
  0
LINE
  5
43
  8
1
  6
CONTINUOUS
 62
     7
 10
0.0
 20
9.9512438643511985
 30
0.0
 11
0.7609032224437501
 21
9.7093464738136994
 31
0.0
  0
LINE
  5
42
  8
1
  6
CONTINUOUS
 62
     7
 10
1.3754500811999999
 20
9.5139772485699492
 30
0.0
 11
1.3754500811999999
 21
9.5104533081324494
 31
0.0
  0
LINE
  5
41
  8
1
  6
CONTINUOUS
 62
     7
 10
13.473152069231251
 20
14.127406076526199
 30
0.0
 11
13.473152069231251
 21
13.39443630246995
 31
0.0
  0
LINE
  5
40
  8
1
  6
CONTINUOUS
 62
     7
 10
1.3754500811999999
 20
9.9673382616136994
 30
0.0
 11
14.221348853568751
 21
5.8835200695699488
 31
0.0
  0
LINE
  5
3F
  8
1
  6
CONTINUOUS
 62
     7
 10
1.3754500811999999
 20
9.9673382616136994
 30
0.0
 11
13.473152069231251
 21
14.127406076526199
 31
0.0
  0
LINE
  5
3E
  8
1
  6
CONTINUOUS
 62
     7
 10
0.0
 20
9.2480262159886983
 30
0.0
 11
14.863353515549999
 21
4.5228421846637001
 31
0.0
  0
LINE
  5
3D
  8
1
  6
CONTINUOUS
 62
     7
 10
14.863353515549999
 20
4.5228421846637001
 30
0.0
 11
28.713296984962501
 21
10.0058053408262
 31
0.0
  0
LINE
  5
3C
  8
1
  6
CONTINUOUS
 62
     7
 10
14.863353515549999
 20
5.2260604116699501
 30
0.0
 11
28.713296984962501
 21
10.7387756935262
 31
0.0
  0
LINE
  5
3B
  8
1
  6
CONTINUOUS
 62
     7
 10
0.0
 20
9.9512438643511985
 30
0.0
 11
14.863353515549999
 21
5.2260604116699501
 31
0.0
  0
LINE
  5
3A
  8
1
  6
CONTINUOUS
 62
     7
 10
2.4830222461312501
 20
9.6152323824512091
 30
0.0
 11
13.473152069231251
 21
13.39443630246995
 31
0.0
  0
LINE
  5
39
  8
1
  6
CONTINUOUS
 62
     7
 10
1.3754500811999999
 20
10.424223793738699
 30
0.0
 11
12.70586409165
 21
14.320442210169951
 31
0.0
  0
LINE
  5
38
  8
1
  6
CONTINUOUS
 62
     7
 10
1.3754500811999999
 20
10.424223793738699
 30
0.0
 11
12.70586409165
 21
14.320442210169951
 31
0.0
  0
LINE
  5
37
  8
1
  6
CONTINUOUS
 62
     7
 10
1.3754500811999999
 20
10.424223793738699
 30
0.0
 11
12.70586409165
 21
14.320442210169951
 31
0.0
  0
LINE
  5
36
  8
1
  6
CONTINUOUS
 62
     7
 10
15.496592882006251
 20
5.938270762551209
 30
0.0
 11
27.311634920531251
 21
10.64589122013245
 31
0.0
  0
LINE
  5
35
  8
1
  6
CONTINUOUS
 62
     7
 10
27.311634920531251
 20
11.091408717144949
 30
0.0
 11
15.496592882006251
 21
14.0638617344762
 31
0.0
  0
LINE
  5
34
  8
1
  6
CONTINUOUS
 62
     7
 10
26.184032423550001
 20
10.19660559501996
 30
0.0
 11
15.496592882006251
 21
12.88537446340745
 31
0.0
  0
LINE
  5
33
  8
1
  6
CONTINUOUS
 62
     7
 10
14.221348853568751
 20
13.2062029119512
 30
0.0
 11
13.473152069231251
 21
13.39443630246995
 31
0.0
  0
LINE
  5
32
  8
1
  6
CONTINUOUS
 62
     7
 10
14.221348853568751
 20
13.939173264651201
 30
0.0
 11
12.70586409165
 21
14.320442210169951
 31
0.0
  0
LINE
  5
31
  8
1
  6
CONTINUOUS
 62
     7
 10
14.221348853568751
 20
39.645674147076221
 30
0.0
 11
14.221348853568751
 21
39.640289288338707
 31
0.0
  0
LINE
  5
30
  8
1
  6
CONTINUOUS
 62
     7
 10
13.473152069231251
 20
39.174929518494963
 30
0.0
 11
13.473152069231251
 21
14.127406076526199
 31
0.0
  0
LINE
  5
2F
  8
1
  6
CONTINUOUS
 62
     7
 10
12.70586409165
 20
39.418856791307462
 30
0.0
 11
12.70586409165
 21
14.320442210169951
 31
0.0
  0
LINE
  5
2E
  8
1
  6
CONTINUOUS
 62
     7
 10
14.221348853568751
 20
36.365602539369959
 30
0.0
 11
14.221348853568751
 21
14.721510608882451
 31
0.0
  0
LINE
  5
2D
  8
1
  6
CONTINUOUS
 62
     7
 10
26.1833183771625
 20
44.406916363682463
 30
0.0
 11
13.473152069231251
 21
47.604566534282426
 31
0.0
  0
LINE
  5
2C
  8
1
  6
CONTINUOUS
 62
     7
 10
27.311634920531251
 20
43.658030414638709
 30
0.0
 11
27.311634920531251
 21
10.64589122013245
 31
0.0
  0
LINE
  5
2B
  8
1
  6
CONTINUOUS
 62
     7
 10
12.70586409165
 20
47.340717714444949
 30
0.0
 11
12.70586409165
 21
40.575436031357462
 31
0.0
  0
LINE
  5
2A
  8
1
  6
CONTINUOUS
 62
     7
 10
14.221348853568751
 20
47.416333722407437
 30
0.0
 11
14.221348853568751
 21
40.093650880026203
 31
0.0
  0
LINE
  5
29
  8
1
  6
CONTINUOUS
 62
     7
 10
2.4830222461312501
 20
43.825362614263703
 30
0.0
 11
13.473152069231251
 21
47.604566534282426
 31
0.0
  0
LINE
  5
28
  8
1
  6
CONTINUOUS
 62
     7
 10
1.3754500811999999
 20
43.02088983201994
 30
0.0
 11
1.3754500811999999
 21
9.9673382616136994
 31
0.0
  0
ENDBLK
  5
EC
  8
0
  0
ENDSEC
  0
SECTION
  2
ENTITIES
  0
INSERT
  5
27
  8
0
  2
TOP
 10
0.0
 20
0.0
 30
0.0
  0
ENDSEC
  0
EOF
