  0
SECTION
  2
HEADER
  9
$EXTMIN
 10
0.000000
 20
-19.000000
 30
0.000000
  9
$EXTMAX
 10
50.008586
 20
16.244749
 30
0.000000
  0
ENDSEC
  0
SECTION
  2
TABLES
  0
TABLE
  2
LTYPE
 70
     8
  0
LTYPE
  2
CENTER_DASH_DASH
 70
     0
  3
Center_Dash_Dash
 72
    65
 73
     6
 40
22.000000
 49
12.000000
 49
-3.000000
 49
0.500000
 49
-3.000000
 49
0.500000
 49
-3.000000
  0
LTYPE
  2
CONTINUOUS
 70
     0
  3
Solid line
 72
    65
 73
     0
 40
0.000000
  0
LTYPE
  2
DASHED
 70
     0
  3
Dashed
 72
    65
 73
     2
 40
15.000000
 49
12.000000
 49
-3.000000
  0
LTYPE
  2
DASH_CENTER
 70
     0
  3
Dash_Center
 72
    65
 73
     4
 40
36.000000
 49
24.000000
 49
-3.000000
 49
6.000000
 49
-3.000000
  0
LTYPE
  2
DOTTED
 70
     0
  3
Dotted
 72
    65
 73
     2
 40
3.500000
 49
0.500000
 49
-3.000000
  0
LTYPE
  2
DOT_CENTER
 70
     0
  3
Dot_Center
 72
    65
 73
     4
 40
2.000000
 49
1.250000
 49
-0.250000
 49
0.250000
 49
-0.250000
  0
LTYPE
  2
LONG_DASHED
 70
     0
  3
Long_Dashed
 72
    65
 73
     2
 40
2.000000
 49
1.500000
 49
-0.500000
  0
LTYPE
  2
PHANTOM
 70
     0
  3
Phantom
 72
    65
 73
     6
 40
2.500000
 49
1.250000
 49
-0.250000
 49
0.250000
 49
-0.250000
 49
0.250000
 49
-0.250000
  0
ENDTAB
  0
TABLE
  2
STYLE
 70
     3
  0
STYLE
  2
BIGFONT
 70
     0
 40
1.000000
 41
1.000000
 50
0.000000
 71
     0
 42
0.000000
  3
txt
  4
bigfont
  0
STYLE
  2
CONVERTER_1
 70
     0
 40
0.000000
 41
0.900000
 50
0.000000
 71
     0
 42
0.000000
  3
txt.shx
  4

  0
STYLE
  2
STANDARD
 70
     0
 40
0.000000
 41
1.000000
 50
0.000000
 71
     0
 42
0.000000
  3
txt
  4

  0
ENDTAB
  0
TABLE
  2
LAYER
 70
     1
  0
LAYER
  2
daiko
 70
     0
 62
     7
  6
CONTINUOUS
  0
ENDTAB
  0
ENDSEC
  0
SECTION
  2
ENTITIES
  0
ARC
  8
daiko
 10
0.535756
 20
1.010271
 30
0.000000
 40
0.035034
 50
188.896113
 51
267.480113
  0
ARC
  8
daiko
 10
1.085571
 20
1.029820
 30
0.000000
 40
0.035034
 50
8.896113
 51
105.963384
  0
ARC
  8
daiko
 10
0.842634
 20
0.996765
 30
0.000000
 40
0.035034
 50
188.896113
 51
285.963384
  0
ARC
  8
daiko
 10
1.387897
 20
0.831556
 30
0.000000
 40
0.085132
 50
180.000000
 51
285.815809
  0
ARC
  8
daiko
 10
46.863063
 20
13.791493
 30
0.000000
 40
0.056754
 50
285.815809
 51
0.000000
  0
ARC
  8
daiko
 10
47.013259
 20
14.176517
 30
0.000000
 40
0.085132
 50
239.574266
 51
285.773781
  0
ARC
  8
daiko
 10
47.011930
 20
14.178631
 30
0.000000
 40
0.056754
 50
240.000000
 51
285.773781
  0
ARC
  8
daiko
 10
1.419746
 20
0.840568
 30
0.000000
 40
0.085132
 50
180.000000
 51
285.815809
  0
ARC
  8
daiko
 10
4.292584
 20
1.623993
 30
0.000000
 40
0.056754
 50
285.815809
 51
0.000000
  0
ARC
  8
daiko
 10
4.442780
 20
2.009017
 30
0.000000
 40
0.085132
 50
239.574266
 51
285.773781
  0
ARC
  8
daiko
 10
4.441451
 20
2.011131
 30
0.000000
 40
0.056754
 50
240.000000
 51
285.773781
  0
ARC
  8
daiko
 10
47.415585
 20
14.300754
 30
0.000000
 40
0.064553
 50
286.449345
 51
332.500682
  0
ARC
  8
daiko
 10
47.426864
 20
14.295374
 30
0.000000
 40
0.087078
 50
285.765061
 51
335.487720
  0
ARC
  8
daiko
 10
47.646170
 20
14.055435
 30
0.000000
 40
0.097402
 50
186.805033
 51
279.718877
  0
ARC
  8
daiko
 10
47.645720
 20
14.018977
 30
0.000000
 40
0.061897
 50
203.142771
 51
285.837839
  0
ARC
  8
daiko
 10
0.377316
 20
1.333508
 30
0.000000
 40
0.084188
 50
177.158545
 51
243.164144
  0
ARC
  8
daiko
 10
0.423234
 20
1.320988
 30
0.000000
 40
0.099370
 50
177.592959
 51
212.376470
  0
ARC
  8
daiko
 10
5.452691
 20
2.060054
 30
0.000000
 40
0.076643
 50
194.830798
 51
16.832502
  0
ARC
  8
daiko
 10
2.867429
 20
1.326955
 30
0.000000
 40
0.076643
 50
194.830798
 51
16.832502
  0
ARC
  8
daiko
 10
46.447814
 20
13.779751
 30
0.000000
 40
0.076643
 50
194.830798
 51
16.832502
  0
ARC
  8
daiko
 10
0.334833
 20
1.952706
 30
0.000000
 40
0.462948
 50
54.514418
 51
110.381489
  0
ARC
  8
daiko
 10
-0.024113
 20
1.285492
 30
0.000000
 40
1.218315
 50
29.757743
 51
58.988575
  0
ARC
  8
daiko
 10
0.288010
 20
1.939831
 30
0.000000
 40
0.462948
 50
54.514418
 51
110.381489
  0
ARC
  8
daiko
 10
-0.070936
 20
1.272617
 30
0.000000
 40
1.218315
 50
29.757743
 51
58.988575
  0
ARC
  8
daiko
 10
1.522736
 20
0.709371
 30
0.000000
 40
0.137961
 50
263.150027
 51
28.032903
  0
ARC
  8
daiko
 10
1.560667
 20
0.687741
 30
0.000000
 40
0.034844
 50
302.804007
 51
357.195993
  0
ARC
  8
daiko
 10
1.630550
 20
0.698988
 30
0.000000
 40
0.009761
 50
169.617127
 51
310.382873
  0
ARC
  8
daiko
 10
1.656086
 20
0.632650
 30
0.000000
 40
0.035188
 50
123.091934
 51
176.908066
  0
ARC
  8
daiko
 10
1.585947
 20
0.621732
 30
0.000000
 40
0.009709
 50
348.746457
 51
131.253543
  0
ARC
  8
daiko
 10
1.548197
 20
0.624277
 30
0.000000
 40
0.066698
 50
176.370537
 51
231.065346
  0
ARC
  8
daiko
 10
1.673946
 20
0.618747
 30
0.000000
 40
0.192560
 50
123.669105
 51
177.096997
  0
ARC
  8
daiko
 10
1.609516
 20
0.717137
 30
0.000000
 40
0.074961
 50
89.023963
 51
124.376684
  0
ARC
  8
daiko
 10
1.609538
 20
0.748984
 30
0.000000
 40
0.043121
 50
35.802843
 51
88.332173
  0
ARC
  8
daiko
 10
1.268397
 20
1.131046
 30
0.000000
 40
0.066234
 50
1.257920
 51
58.742080
  0
ARC
  8
daiko
 10
0.987362
 20
1.275960
 30
0.000000
 40
0.049453
 50
57.004563
 51
98.908730
  0
ARC
  8
daiko
 10
0.961855
 20
1.262158
 30
0.000000
 40
0.105943
 50
59.804328
 51
68.618306
  0
ARC
  8
daiko
 10
0.957348
 20
1.392014
 30
0.000000
 40
0.052224
 50
252.989403
 51
307.250662
  0
ARC
  8
daiko
 10
0.916787
 20
1.414435
 30
0.000000
 40
0.063751
 50
235.044373
 51
302.264207
  0
ARC
  8
daiko
 10
0.843030
 20
1.384439
 30
0.000000
 40
0.046243
 50
235.473658
 51
280.439636
  0
ARC
  8
daiko
 10
0.854854
 20
1.365161
 30
0.000000
 40
0.067444
 50
234.796620
 51
281.116673
  0
ARC
  8
daiko
 10
0.882769
 20
0.518429
 30
0.000000
 40
0.314858
 50
328.063570
 51
11.727599
  0
ARC
  8
daiko
 10
1.069497
 20
0.406556
 30
0.000000
 40
0.097291
 50
265.139125
 51
325.804374
  0
ARC
  8
daiko
 10
0.818131
 20
0.516718
 30
0.000000
 40
0.343335
 50
334.611707
 51
10.858995
  0
ARC
  8
daiko
 10
1.034513
 20
0.407031
 30
0.000000
 40
0.101019
 50
264.279618
 51
338.198759
  0
ARC
  8
daiko
 10
1.061916
 20
0.468943
 30
0.000000
 40
0.166694
 50
215.358251
 51
257.009243
  0
ARC
  8
daiko
 10
1.260219
 20
0.607907
 30
0.000000
 40
0.408839
 50
188.668319
 51
215.158786
  0
ARC
  8
daiko
 10
1.181064
 20
0.590166
 30
0.000000
 40
0.306799
 50
162.418797
 51
193.522177
  0
ARC
  8
daiko
 10
1.102528
 20
0.550033
 30
0.000000
 40
0.222020
 50
188.183591
 51
234.663281
  0
ARC
  8
daiko
 10
1.016907
 20
0.428143
 30
0.000000
 40
0.072918
 50
235.741413
 51
309.209560
  0
ARC
  8
daiko
 10
0.906096
 20
0.510405
 30
0.000000
 40
0.209464
 50
318.511763
 51
1.639102
  0
ARC
  8
daiko
 10
0.788812
 20
0.519744
 30
0.000000
 40
0.326678
 50
359.412857
 51
29.811031
  0
ARC
  8
daiko
 10
0.949359
 20
0.624562
 30
0.000000
 40
0.135725
 50
25.106090
 51
74.344430
  0
ARC
  8
daiko
 10
0.972010
 20
0.685879
 30
0.000000
 40
0.070767
 50
78.610229
 51
128.281670
  0
ARC
  8
daiko
 10
1.013584
 20
0.641081
 30
0.000000
 40
0.131779
 50
130.404678
 51
161.526952
  0
ARC
  8
daiko
 10
1.045032
 20
1.764734
 30
0.000000
 40
0.068394
 50
0.914586
 51
57.682646
  0
ARC
  8
daiko
 10
1.092004
 20
1.777692
 30
0.000000
 40
0.068243
 50
0.846391
 51
57.750842
  0
ARC
  8
daiko
 10
0.563504
 20
1.767350
 30
0.000000
 40
0.596844
 50
317.066394
 51
1.089679
  0
ARC
  8
daiko
 10
0.551853
 20
1.755850
 30
0.000000
 40
0.561652
 50
315.262841
 51
1.017693
  0
ARC
  8
daiko
 10
0.994808
 20
1.635566
 30
0.000000
 40
0.063809
 50
306.922806
 51
4.900762
  0
ARC
  8
daiko
 10
1.008518
 20
1.631871
 30
0.000000
 40
0.053340
 50
250.276592
 51
297.490936
  0
ARC
  8
daiko
 10
1.053325
 20
1.732610
 30
0.000000
 40
0.163495
 50
209.093487
 51
247.408533
  0
ARC
  8
daiko
 10
1.044531
 20
1.742654
 30
0.000000
 40
0.161224
 50
177.539194
 51
213.737340
  0
ARC
  8
daiko
 10
0.935682
 20
1.753686
 30
0.000000
 40
0.052388
 50
114.717076
 51
184.499671
  0
ARC
  8
daiko
 10
0.930716
 20
1.718440
 30
0.000000
 40
0.084549
 50
49.152417
 51
101.556962
  0
ARC
  8
daiko
 10
0.860938
 20
1.628294
 30
0.000000
 40
0.198475
 50
7.857358
 51
50.935802
  0
ARC
  8
daiko
 10
0.931021
 20
1.640870
 30
0.000000
 40
0.127363
 50
0.066163
 51
6.562831
  0
ARC
  8
daiko
 10
0.993074
 20
1.653000
 30
0.000000
 40
0.009719
 50
48.906717
 51
191.093283
  0
ARC
  8
daiko
 10
0.923018
 20
1.664000
 30
0.000000
 40
0.035087
 50
3.008281
 51
56.991719
  0
ARC
  8
daiko
 10
1.018306
 20
1.719014
 30
0.000000
 40
0.034810
 50
182.775041
 51
237.224959
  0
ARC
  8
daiko
 10
0.948418
 20
1.730348
 30
0.000000
 40
0.009787
 50
230.045395
 51
9.954605
  0
ARC
  8
daiko
 10
0.301936
 20
2.032404
 30
0.000000
 40
0.374581
 50
7.543672
 51
38.565466
  0
ARC
  8
daiko
 10
0.496788
 20
2.208146
 30
0.000000
 40
0.113790
 50
30.512807
 51
104.617187
  0
ARC
  8
daiko
 10
0.422724
 20
2.139274
 30
0.000000
 40
0.184636
 50
28.326140
 51
75.782343
  0
ARC
  8
daiko
 10
0.221140
 20
2.014284
 30
0.000000
 40
0.421634
 50
8.735019
 51
30.279693
  0
ARC
  8
daiko
 10
0.459693
 20
2.223932
 30
0.000000
 40
0.094693
 50
84.923335
 51
134.640165
  0
ARC
  8
daiko
 10
0.617434
 20
2.111958
 30
0.000000
 40
0.287171
 50
141.351325
 51
193.852213
  0
ARC
  8
daiko
 10
0.489409
 20
1.917002
 30
0.000000
 40
0.034984
 50
182.921880
 51
237.078120
  0
ARC
  8
daiko
 10
0.394578
 20
1.862252
 30
0.000000
 40
0.034444
 50
2.462164
 51
57.537836
  0
ARC
  8
daiko
 10
0.419017
 20
1.928816
 30
0.000000
 40
0.010036
 50
233.628815
 51
6.371185
  0
ARC
  8
daiko
 10
0.463992
 20
1.850918
 30
0.000000
 40
0.009709
 50
48.732546
 51
191.267454
  0
ARC
  8
daiko
 10
0.430802
 20
1.923022
 30
0.000000
 40
0.169476
 50
19.685134
 51
73.384022
  0
ARC
  8
daiko
 10
0.312137
 20
1.853659
 30
0.000000
 40
0.305623
 50
337.945243
 51
24.440529
  0
ARC
  8
daiko
 10
0.509062
 20
1.776581
 30
0.000000
 40
0.094199
 50
284.485453
 51
336.420815
  0
ARC
  8
daiko
 10
0.521875
 20
1.771338
 30
0.000000
 40
0.086631
 50
231.034657
 51
277.127854
  0
ARC
  8
daiko
 10
0.637706
 20
1.895557
 30
0.000000
 40
0.256334
 50
193.191082
 51
228.363350
  0
ARC
  8
daiko
 10
0.659424
 20
1.920013
 30
0.000000
 40
0.283687
 50
161.132460
 51
197.001961
  0
ARC
  8
daiko
 10
0.476924
 20
1.998492
 30
0.000000
 40
0.086961
 50
88.457453
 51
171.229097
  0
ARC
  8
daiko
 10
0.063866
 20
2.417489
 30
0.000000
 40
0.028194
 50
58.185741
 51
93.879468
  0
ARC
  8
daiko
 10
0.018384
 20
2.409688
 30
0.000000
 40
0.023225
 50
54.395484
 51
104.933788
  0
ARC
  8
daiko
 10
0.017486
 20
2.416774
 30
0.000000
 40
0.016176
 50
108.327643
 51
156.428876
  0
ARC
  8
daiko
 10
0.030132
 20
2.410866
 30
0.000000
 40
0.030132
 50
155.748511
 51
184.297608
  0
ARC
  8
daiko
 10
1.395042
 20
2.473530
 30
0.000000
 40
1.396467
 50
182.664662
 51
208.669824
  0
ARC
  8
daiko
 10
0.119998
 20
2.209014
 30
0.000000
 40
0.010030
 50
233.555853
 51
6.444147
  0
ARC
  8
daiko
 10
0.190299
 20
2.197163
 30
0.000000
 40
0.034898
 50
182.849587
 51
237.150413
  0
ARC
  8
daiko
 10
0.094942
 20
2.142109
 30
0.000000
 40
0.035071
 50
2.994479
 51
57.005521
  0
ARC
  8
daiko
 10
0.165087
 20
2.130916
 30
0.000000
 40
0.009789
 50
50.081072
 51
189.918928
  0
ARC
  8
daiko
 10
0.111550
 20
2.228744
 30
0.000000
 40
0.057068
 50
120.074715
 51
188.557134
  0
ARC
  8
daiko
 10
0.105474
 20
2.215527
 30
0.000000
 40
0.066530
 50
57.828761
 51
109.786885
  0
ARC
  8
daiko
 10
0.036521
 20
2.107660
 30
0.000000
 40
0.194552
 50
6.369917
 51
57.554236
  0
ARC
  8
daiko
 10
0.155084
 20
2.117295
 30
0.000000
 40
0.075736
 50
321.512745
 51
9.078292
  0
ARC
  8
daiko
 10
0.180181
 20
2.106070
 30
0.000000
 40
0.049579
 50
249.363613
 51
313.591671
  0
ARC
  8
daiko
 10
0.241539
 20
2.228823
 30
0.000000
 40
0.186618
 50
182.632098
 51
245.012458
  0
ARC
  8
daiko
 10
4.712901
 20
1.731892
 30
0.000000
 40
0.134197
 50
46.581357
 51
136.148804
  0
ARC
  8
daiko
 10
4.747234
 20
1.688371
 30
0.000000
 40
0.189260
 50
133.847448
 51
194.236041
  0
ARC
  8
daiko
 10
4.686411
 20
1.667423
 30
0.000000
 40
0.125290
 50
191.620679
 51
262.483538
  0
ARC
  8
daiko
 10
4.676699
 20
1.703275
 30
0.000000
 40
0.160205
 50
267.611114
 51
326.274892
  0
ARC
  8
daiko
 10
4.638059
 20
1.729753
 30
0.000000
 40
0.226030
 50
285.489719
 51
330.831830
  0
ARC
  8
daiko
 10
4.655509
 20
1.672243
 30
0.000000
 40
0.165988
 50
238.191734
 51
285.767795
  0
ARC
  8
daiko
 10
4.683401
 20
1.697448
 30
0.000000
 40
0.202378
 50
184.795470
 51
235.240972
  0
ARC
  8
daiko
 10
4.738871
 20
1.706852
 30
0.000000
 40
0.258484
 50
125.275353
 51
185.844794
  0
ARC
  8
daiko
 10
4.694993
 20
1.783390
 30
0.000000
 40
0.170865
 50
32.046507
 51
128.086174
  0
ARC
  8
daiko
 10
4.952986
 20
2.152209
 30
0.000000
 40
0.065399
 50
2.441483
 51
57.558517
  0
ARC
  8
daiko
 10
4.826148
 20
2.888620
 30
0.000000
 40
0.866349
 50
226.774838
 51
262.629450
  0
ARC
  8
daiko
 10
4.730092
 20
2.706712
 30
0.000000
 40
0.520506
 50
230.637579
 51
266.601076
  0
ARC
  8
daiko
 10
4.277941
 20
1.959635
 30
0.000000
 40
0.071611
 50
4.431259
 51
73.619227
  0
ARC
  8
daiko
 10
47.523464
 20
14.319504
 30
0.000000
 40
0.065409
 50
2.620811
 51
63.216804
  0
ARC
  8
daiko
 10
46.853959
 20
14.129583
 30
0.000000
 40
0.065930
 50
2.682088
 51
57.317912
  0
ARC
  8
daiko
 10
4.736312
 20
1.871547
 30
0.000000
 40
0.317745
 50
54.970317
 51
96.701348
  0
ARC
  8
daiko
 10
4.673563
 20
1.879649
 30
0.000000
 40
0.351622
 50
11.335293
 51
45.800860
  0
ARC
  8
daiko
 10
4.792984
 20
1.858572
 30
0.000000
 40
0.242720
 50
280.070612
 51
21.812803
  0
ARC
  8
daiko
 10
4.734401
 20
2.055762
 30
0.000000
 40
0.447717
 50
247.599470
 51
283.040865
  0
ARC
  8
daiko
 10
4.710305
 20
1.962830
 30
0.000000
 40
0.163725
 50
235.937883
 51
305.395872
  0
ARC
  8
daiko
 10
4.744073
 20
1.912565
 30
0.000000
 40
0.103203
 50
306.277429
 51
74.888026
  0
ARC
  8
daiko
 10
4.648044
 20
1.712376
 30
0.000000
 40
0.324048
 50
67.705228
 51
78.074122
  0
ARC
  8
daiko
 10
0.335181
 20
1.877222
 30
0.000000
 40
0.181060
 50
204.006564
 51
238.917206
  0
ARC
  8
daiko
 10
1.283376
 20
0.011651
 30
0.000000
 40
0.011651
 50
228.738333
 51
11.261667
  0
ARC
  8
daiko
 10
0.381431
 20
0.567831
 30
0.000000
 40
0.042180
 50
183.060217
 51
236.939783
  0
ARC
  8
daiko
 10
0.987260
 20
0.587634
 30
0.000000
 40
0.034360
 50
182.388974
 51
237.611026
  0
ARC
  8
daiko
 10
0.962473
 20
0.521861
 30
0.000000
 40
0.009723
 50
48.981865
 51
191.018135
  0
ARC
  8
daiko
 10
0.893127
 20
0.533320
 30
0.000000
 40
0.034324
 50
0.222105
 51
57.586247
  0
ARC
  8
daiko
 10
0.917747
 20
0.599330
 30
0.000000
 40
0.009831
 50
230.738874
 51
9.261126
  0
ARC
  8
daiko
 10
49.033077
 20
14.512849
 30
0.000000
 40
0.076643
 50
194.830798
 51
16.832502
  0
ARC
  8
daiko
 10
49.239410
 20
15.793915
 30
0.000000
 40
0.416653
 50
54.514418
 51
106.820815
  0
ARC
  8
daiko
 10
48.916358
 20
15.193423
 30
0.000000
 40
1.096484
 50
29.757743
 51
58.988575
  0
ARC
  8
daiko
 10
48.942667
 20
15.200657
 30
0.000000
 40
1.096484
 50
29.757743
 51
58.988575
  0
ARC
  8
daiko
 10
49.265719
 20
15.801150
 30
0.000000
 40
0.416653
 50
54.514418
 51
110.381489
  0
ARC
  8
daiko
 10
49.628703
 20
14.410706
 30
0.000000
 40
0.137961
 50
263.150027
 51
28.032903
  0
ARC
  8
daiko
 10
49.806812
 20
14.968064
 30
0.000000
 40
0.062078
 50
1.232196
 51
61.897698
  0
ARC
  8
daiko
 10
49.395280
 20
15.648537
 30
0.000000
 40
0.587103
 50
316.762198
 51
358.904250
  0
ARC
  8
daiko
 10
49.438595
 20
15.648970
 30
0.000000
 40
0.570008
 50
316.107419
 51
359.555090
  0
ARC
  8
daiko
 10
49.736614
 20
14.400492
 30
0.000000
 40
0.009828
 50
170.685510
 51
309.314490
  0
ARC
  8
daiko
 10
49.666951
 20
14.388893
 30
0.000000
 40
0.034518
 50
302.526052
 51
357.473948
  0
ARC
  8
daiko
 10
49.691849
 20
14.322956
 30
0.000000
 40
0.009752
 50
349.467804
 51
130.532196
  0
ARC
  8
daiko
 10
49.761456
 20
14.334331
 30
0.000000
 40
0.034575
 50
122.574525
 51
177.425475
  0
ARC
  8
daiko
 10
49.646463
 20
14.320657
 30
0.000000
 40
0.058076
 50
186.463518
 51
233.904449
  0
ARC
  8
daiko
 10
49.773671
 20
14.323985
 30
0.000000
 40
0.185178
 50
142.508142
 51
183.053911
  0
ARC
  8
daiko
 10
49.744153
 20
14.357960
 30
0.000000
 40
0.141365
 50
111.531055
 51
146.154713
  0
ARC
  8
daiko
 10
49.713133
 20
14.448026
 30
0.000000
 40
0.046389
 50
36.385584
 51
116.724157
  0
ARC
  8
daiko
 10
49.920054
 20
15.635949
 30
0.000000
 40
0.062237
 50
1.253459
 51
57.343774
  0
ARC
  8
daiko
 10
49.947180
 20
15.643641
 30
0.000000
 40
0.061412
 50
0.842809
 51
57.754423
  0
ARC
  8
daiko
 10
49.022395
 20
16.220833
 30
0.000000
 40
0.023916
 50
57.555729
 51
100.014261
  0
ARC
  8
daiko
 10
48.995416
 20
16.211510
 30
0.000000
 40
0.026050
 50
58.244755
 51
96.348246
  0
ARC
  8
daiko
 10
49.825235
 20
13.897756
 30
0.000000
 40
0.013440
 50
316.416891
 51
5.260403
  0
ARC
  8
daiko
 10
49.351817
 20
16.210523
 30
0.000000
 40
0.125583
 50
236.164707
 51
274.104843
  0
ARC
  8
daiko
 10
49.364300
 20
15.942478
 30
0.000000
 40
0.142826
 50
58.867833
 51
91.401717
  0
ARC
  8
daiko
 10
49.281197
 20
15.810482
 30
0.000000
 40
0.298791
 50
38.379993
 51
58.313476
  0
ARC
  8
daiko
 10
49.736677
 20
16.165335
 30
0.000000
 40
0.278622
 50
217.429366
 51
239.264104
  0
LINE
  8
daiko
 10
0.776503
 20
1.422090
 30
0.000000
 11
0.880262
 21
1.362185
 31
0.000000
  0
LINE
  8
daiko
 10
0.816820
 20
1.346340
 30
0.000000
 11
0.785532
 21
1.364404
 31
0.000000
  0
LINE
  8
daiko
 10
0.790678
 20
1.324656
 30
0.000000
 11
0.815974
 21
1.310052
 31
0.000000
  0
LINE
  8
daiko
 10
0.867858
 20
1.298983
 30
0.000000
 11
0.979704
 21
1.324817
 31
0.000000
  0
LINE
  8
daiko
 10
0.906083
 20
1.351589
 30
0.000000
 11
0.851409
 21
1.338961
 31
0.000000
  0
LINE
  8
daiko
 10
0.841094
 20
0.961766
 30
0.000000
 11
0.534216
 21
0.975271
 31
0.000000
  0
LINE
  8
daiko
 10
0.829898
 20
1.080968
 30
0.000000
 11
1.087766
 21
1.064784
 31
0.000000
  0
LINE
  8
daiko
 10
0.843059
 20
0.996887
 30
0.000000
 11
1.075936
 21
1.063502
 31
0.000000
  0
LINE
  8
daiko
 10
0.852269
 20
0.963083
 30
0.000000
 11
1.085147
 21
1.029698
 31
0.000000
  0
LINE
  8
daiko
 10
0.790669
 20
0.963985
 30
0.000000
 11
0.856050
 21
0.546289
 31
0.000000
  0
LINE
  8
daiko
 10
1.155318
 20
0.581400
 30
0.000000
 11
1.085147
 21
1.029698
 31
0.000000
  0
LINE
  8
daiko
 10
1.190710
 20
0.584664
 30
0.000000
 11
1.120184
 21
1.035237
 31
0.000000
  0
LINE
  8
daiko
 10
47.549454
 20
14.043893
 30
0.000000
 11
47.549454
 21
14.334348
 31
0.000000
  0
LINE
  8
daiko
 10
47.433864
 20
14.238843
 30
0.000000
 11
47.027358
 21
14.124014
 31
0.000000
  0
LINE
  8
daiko
 10
47.450522
 20
14.211571
 30
0.000000
 11
47.036401
 21
14.094591
 31
0.000000
  0
LINE
  8
daiko
 10
47.549454
 20
14.334348
 30
0.000000
 11
47.538740
 21
14.385082
 31
0.000000
  0
LINE
  8
daiko
 10
46.970146
 20
14.103109
 30
0.000000
 11
46.919817
 21
14.132668
 31
0.000000
  0
LINE
  8
daiko
 10
47.549454
 20
14.334348
 30
0.000000
 11
47.506094
 21
14.259246
 31
0.000000
  0
LINE
  8
daiko
 10
46.983552
 20
14.129480
 30
0.000000
 11
46.868616
 21
14.195839
 31
0.000000
  0
LINE
  8
daiko
 10
47.538740
 20
14.385082
 30
0.000000
 11
47.472845
 21
14.270947
 31
0.000000
  0
LINE
  8
daiko
 10
47.588805
 20
14.322495
 30
0.000000
 11
47.588805
 21
13.994650
 31
0.000000
  0
LINE
  8
daiko
 10
46.919817
 20
14.132668
 30
0.000000
 11
46.919817
 21
13.791493
 31
0.000000
  0
LINE
  8
daiko
 10
47.264398
 20
14.526077
 30
0.000000
 11
47.558547
 21
14.374902
 31
0.000000
  0
LINE
  8
daiko
 10
46.593533
 20
14.337220
 30
0.000000
 11
46.889560
 21
14.185075
 31
0.000000
  0
LINE
  8
daiko
 10
0.293232
 20
1.337682
 30
0.000000
 11
0.293232
 21
1.690641
 31
0.000000
  0
LINE
  8
daiko
 10
1.015139
 20
1.353726
 30
0.000000
 11
4.399975
 21
2.304283
 31
0.000000
  0
LINE
  8
daiko
 10
1.015139
 20
1.353726
 30
0.000000
 11
1.302765
 21
1.187665
 31
0.000000
  0
LINE
  8
daiko
 10
1.302765
 20
0.831556
 30
0.000000
 11
1.302765
 21
1.150888
 31
0.000000
  0
LINE
  8
daiko
 10
1.294802
 20
1.155485
 30
0.000000
 11
1.294802
 21
0.013926
 31
0.000000
  0
LINE
  8
daiko
 10
0.843059
 20
0.996887
 30
0.000000
 11
0.673275
 21
2.081580
 31
0.000000
  0
LINE
  8
daiko
 10
0.323951
 20
1.671848
 30
0.000000
 11
0.323951
 21
1.316815
 31
0.000000
  0
LINE
  8
daiko
 10
0.808022
 20
0.991348
 30
0.000000
 11
0.637883
 21
2.078316
 31
0.000000
  0
LINE
  8
daiko
 10
0.338615
 20
2.043204
 30
0.000000
 11
0.501144
 21
1.004853
 31
0.000000
  0
LINE
  8
daiko
 10
5.526051
 20
2.082248
 30
0.000000
 11
5.378601
 21
2.040436
 31
0.000000
  0
LINE
  8
daiko
 10
2.940788
 20
1.349149
 30
0.000000
 11
2.793339
 21
1.307337
 31
0.000000
  0
LINE
  8
daiko
 10
46.521174
 20
13.801945
 30
0.000000
 11
46.373725
 21
13.760133
 31
0.000000
  0
LINE
  8
daiko
 10
4.978975
 20
2.054161
 30
0.000000
 11
4.978975
 21
2.166848
 31
0.000000
  0
LINE
  8
daiko
 10
4.699233
 20
2.187121
 30
0.000000
 11
4.464644
 21
2.322561
 31
0.000000
  0
LINE
  8
daiko
 10
4.715007
 20
2.029429
 30
0.000000
 11
4.456879
 21
1.956514
 31
0.000000
  0
LINE
  8
daiko
 10
4.769496
 20
2.012844
 30
0.000000
 11
4.465922
 21
1.927091
 31
0.000000
  0
LINE
  8
daiko
 10
4.978975
 20
2.166848
 30
0.000000
 11
4.968261
 21
2.217581
 31
0.000000
  0
LINE
  8
daiko
 10
4.399668
 20
1.935609
 30
0.000000
 11
4.349338
 21
1.965168
 31
0.000000
  0
LINE
  8
daiko
 10
4.978975
 20
2.166848
 30
0.000000
 11
4.943794
 21
2.105913
 31
0.000000
  0
LINE
  8
daiko
 10
4.413074
 20
1.961980
 30
0.000000
 11
4.298137
 21
2.028339
 31
0.000000
  0
LINE
  8
daiko
 10
4.968261
 20
2.217581
 30
0.000000
 11
4.918697
 21
2.131734
 31
0.000000
  0
LINE
  8
daiko
 10
4.656619
 20
2.377747
 30
0.000000
 11
4.988069
 21
2.207402
 31
0.000000
  0
LINE
  8
daiko
 10
5.018326
 20
2.154995
 30
0.000000
 11
5.018326
 21
1.948760
 31
0.000000
  0
LINE
  8
daiko
 10
1.302765
 20
1.150888
 30
0.000000
 11
1.294802
 21
1.155485
 31
0.000000
  0
LINE
  8
daiko
 10
1.334615
 20
1.132500
 30
0.000000
 11
1.334615
 21
0.840568
 31
0.000000
  0
LINE
  8
daiko
 10
0.339311
 20
0.565579
 30
0.000000
 11
0.339311
 21
1.662451
 31
0.000000
  0
LINE
  8
daiko
 10
1.275693
 20
0.002893
 30
0.000000
 11
0.358421
 21
0.532480
 31
0.000000
  0
LINE
  8
daiko
 10
0.358421
 20
0.554546
 30
0.000000
 11
1.275693
 21
0.024959
 31
0.000000
  0
LINE
  8
daiko
 10
1.275693
 20
0.024959
 30
0.000000
 11
1.275693
 21
1.166518
 31
0.000000
  0
LINE
  8
daiko
 10
1.294802
 20
1.155485
 30
0.000000
 11
1.275693
 21
1.166518
 31
0.000000
  0
LINE
  8
daiko
 10
1.266138
 20
0.037831
 30
0.000000
 11
0.367976
 21
0.556385
 31
0.000000
  0
LINE
  8
daiko
 10
0.367976
 20
0.556385
 30
0.000000
 11
0.367976
 21
1.644915
 31
0.000000
  0
LINE
  8
daiko
 10
0.241704
 20
1.722164
 30
0.000000
 11
0.404451
 21
1.622600
 31
0.000000
  0
LINE
  8
daiko
 10
0.173603
 20
2.386671
 30
0.000000
 11
0.078729
 21
2.441447
 31
0.000000
  0
LINE
  8
daiko
 10
1.128419
 20
1.835408
 30
0.000000
 11
1.033545
 21
1.890183
 31
0.000000
  0
LINE
  8
daiko
 10
0.952930
 20
0.608268
 30
0.000000
 11
0.952930
 21
0.586201
 31
0.000000
  0
LINE
  8
daiko
 10
0.968855
 20
0.558619
 30
0.000000
 11
0.987964
 21
0.547586
 31
0.000000
  0
LINE
  8
daiko
 10
0.987964
 20
0.547586
 30
0.000000
 11
0.987964
 21
0.518164
 31
0.000000
  0
LINE
  8
daiko
 10
0.987964
 20
0.518164
 30
0.000000
 11
0.968855
 21
0.529197
 31
0.000000
  0
LINE
  8
daiko
 10
0.952930
 20
0.520003
 30
0.000000
 11
0.952930
 21
0.497937
 31
0.000000
  0
LINE
  8
daiko
 10
0.952930
 20
0.497937
 30
0.000000
 11
0.927450
 21
0.512648
 31
0.000000
  0
LINE
  8
daiko
 10
0.927450
 20
0.512648
 30
0.000000
 11
0.927450
 21
0.534714
 31
0.000000
  0
LINE
  8
daiko
 10
0.911525
 20
0.562296
 30
0.000000
 11
0.892415
 21
0.573329
 31
0.000000
  0
LINE
  8
daiko
 10
0.892415
 20
0.573329
 30
0.000000
 11
0.892415
 21
0.602751
 31
0.000000
  0
LINE
  8
daiko
 10
0.892415
 20
0.602751
 30
0.000000
 11
0.911525
 21
0.591718
 31
0.000000
  0
LINE
  8
daiko
 10
0.927450
 20
0.600912
 30
0.000000
 11
0.927450
 21
0.622978
 31
0.000000
  0
LINE
  8
daiko
 10
0.927450
 20
0.622978
 30
0.000000
 11
0.952930
 21
0.608268
 31
0.000000
  0
LINE
  8
daiko
 10
0.958057
 20
1.754106
 30
0.000000
 11
0.983537
 21
1.739395
 31
0.000000
  0
LINE
  8
daiko
 10
0.983537
 20
1.739395
 30
0.000000
 11
0.983537
 21
1.717329
 31
0.000000
  0
LINE
  8
daiko
 10
0.999462
 20
1.689746
 30
0.000000
 11
1.018572
 21
1.678713
 31
0.000000
  0
LINE
  8
daiko
 10
1.018572
 20
1.678713
 30
0.000000
 11
1.018572
 21
1.649292
 31
0.000000
  0
LINE
  8
daiko
 10
1.018572
 20
1.649292
 30
0.000000
 11
0.999462
 21
1.660325
 31
0.000000
  0
LINE
  8
daiko
 10
0.983537
 20
1.651131
 30
0.000000
 11
0.983537
 21
1.629064
 31
0.000000
  0
LINE
  8
daiko
 10
0.983537
 20
1.629064
 30
0.000000
 11
0.958057
 21
1.643775
 31
0.000000
  0
LINE
  8
daiko
 10
0.958057
 20
1.643775
 30
0.000000
 11
0.958057
 21
1.665841
 31
0.000000
  0
LINE
  8
daiko
 10
0.942133
 20
1.693424
 30
0.000000
 11
0.923023
 21
1.704457
 31
0.000000
  0
LINE
  8
daiko
 10
0.923023
 20
1.704457
 30
0.000000
 11
0.923023
 21
1.733879
 31
0.000000
  0
LINE
  8
daiko
 10
0.923023
 20
1.733879
 30
0.000000
 11
0.942133
 21
1.722845
 31
0.000000
  0
LINE
  8
daiko
 10
0.958057
 20
1.732040
 30
0.000000
 11
0.958057
 21
1.754106
 31
0.000000
  0
LINE
  8
daiko
 10
0.155444
 20
2.217495
 30
0.000000
 11
0.155444
 21
2.195429
 31
0.000000
  0
LINE
  8
daiko
 10
0.171369
 20
2.167846
 30
0.000000
 11
0.190479
 21
2.156813
 31
0.000000
  0
LINE
  8
daiko
 10
0.190479
 20
2.156813
 30
0.000000
 11
0.190479
 21
2.127391
 31
0.000000
  0
LINE
  8
daiko
 10
0.190479
 20
2.127391
 30
0.000000
 11
0.171369
 21
2.138424
 31
0.000000
  0
LINE
  8
daiko
 10
0.155444
 20
2.129230
 30
0.000000
 11
0.155444
 21
2.107164
 31
0.000000
  0
LINE
  8
daiko
 10
0.155444
 20
2.107164
 30
0.000000
 11
0.129965
 21
2.121875
 31
0.000000
  0
LINE
  8
daiko
 10
0.129965
 20
2.121875
 30
0.000000
 11
0.129965
 21
2.143941
 31
0.000000
  0
LINE
  8
daiko
 10
0.114040
 20
2.171524
 30
0.000000
 11
0.094930
 21
2.182557
 31
0.000000
  0
LINE
  8
daiko
 10
0.094930
 20
2.182557
 30
0.000000
 11
0.094930
 21
2.211978
 31
0.000000
  0
LINE
  8
daiko
 10
0.094930
 20
2.211978
 30
0.000000
 11
0.114040
 21
2.200945
 31
0.000000
  0
LINE
  8
daiko
 10
0.129965
 20
2.210139
 30
0.000000
 11
0.129965
 21
2.232205
 31
0.000000
  0
LINE
  8
daiko
 10
0.129965
 20
2.232205
 30
0.000000
 11
0.155444
 21
2.217495
 31
0.000000
  0
LINE
  8
daiko
 10
0.454470
 20
1.937285
 30
0.000000
 11
0.454470
 21
1.915219
 31
0.000000
  0
LINE
  8
daiko
 10
0.470395
 20
1.887636
 30
0.000000
 11
0.489505
 21
1.876603
 31
0.000000
  0
LINE
  8
daiko
 10
0.489505
 20
1.876603
 30
0.000000
 11
0.489505
 21
1.847182
 31
0.000000
  0
LINE
  8
daiko
 10
0.489505
 20
1.847182
 30
0.000000
 11
0.470395
 21
1.858215
 31
0.000000
  0
LINE
  8
daiko
 10
0.454470
 20
1.849021
 30
0.000000
 11
0.454470
 21
1.826955
 31
0.000000
  0
LINE
  8
daiko
 10
0.454470
 20
1.826955
 30
0.000000
 11
0.428991
 21
1.841665
 31
0.000000
  0
LINE
  8
daiko
 10
0.428991
 20
1.841665
 30
0.000000
 11
0.428991
 21
1.863731
 31
0.000000
  0
LINE
  8
daiko
 10
0.413066
 20
1.891314
 30
0.000000
 11
0.393956
 21
1.902347
 31
0.000000
  0
LINE
  8
daiko
 10
0.393956
 20
1.902347
 30
0.000000
 11
0.393956
 21
1.931769
 31
0.000000
  0
LINE
  8
daiko
 10
0.393956
 20
1.931769
 30
0.000000
 11
0.413066
 21
1.920736
 31
0.000000
  0
LINE
  8
daiko
 10
0.428991
 20
1.929930
 30
0.000000
 11
0.428991
 21
1.951996
 31
0.000000
  0
LINE
  8
daiko
 10
0.428991
 20
1.951996
 30
0.000000
 11
0.454470
 21
1.937285
 31
0.000000
  0
LINE
  8
daiko
 10
0.126780
 20
2.373796
 30
0.000000
 11
0.031906
 21
2.428572
 31
0.000000
  0
LINE
  8
daiko
 10
1.081596
 20
1.822533
 30
0.000000
 11
0.986722
 21
1.877308
 31
0.000000
  0
LINE
  8
daiko
 10
1.275693
 20
1.166518
 30
0.000000
 11
1.014293
 21
1.317438
 31
0.000000
  0
LINE
  8
daiko
 10
1.595469
 20
0.708102
 30
0.000000
 11
1.620949
 21
0.722813
 31
0.000000
  0
LINE
  8
daiko
 10
1.595469
 20
0.686036
 30
0.000000
 11
1.595469
 21
0.708102
 31
0.000000
  0
LINE
  8
daiko
 10
1.560435
 20
0.647420
 30
0.000000
 11
1.579544
 21
0.658453
 31
0.000000
  0
LINE
  8
daiko
 10
1.560435
 20
0.617999
 30
0.000000
 11
1.560435
 21
0.647420
 31
0.000000
  0
LINE
  8
daiko
 10
1.579544
 20
0.629032
 30
0.000000
 11
1.560435
 21
0.617999
 31
0.000000
  0
LINE
  8
daiko
 10
1.595469
 20
0.597771
 30
0.000000
 11
1.595469
 21
0.619838
 31
0.000000
  0
LINE
  8
daiko
 10
1.620949
 20
0.612482
 30
0.000000
 11
1.595469
 21
0.597771
 31
0.000000
  0
LINE
  8
daiko
 10
1.620949
 20
0.634548
 30
0.000000
 11
1.620949
 21
0.612482
 31
0.000000
  0
LINE
  8
daiko
 10
1.655984
 20
0.673164
 30
0.000000
 11
1.636874
 21
0.662131
 31
0.000000
  0
LINE
  8
daiko
 10
1.655984
 20
0.702586
 30
0.000000
 11
1.655984
 21
0.673164
 31
0.000000
  0
LINE
  8
daiko
 10
1.636874
 20
0.691552
 30
0.000000
 11
1.655984
 21
0.702586
 31
0.000000
  0
LINE
  8
daiko
 10
1.620949
 20
0.722813
 30
0.000000
 11
1.620949
 21
0.700747
 31
0.000000
  0
LINE
  8
daiko
 10
0.358421
 20
1.650760
 30
0.000000
 11
0.358421
 21
0.554546
 31
0.000000
  0
LINE
  8
daiko
 10
4.349338
 20
1.965168
 30
0.000000
 11
4.349338
 21
1.623993
 31
0.000000
  0
LINE
  8
daiko
 10
4.298137
 20
2.028339
 30
0.000000
 11
1.308284
 21
1.183923
 31
0.000000
  0
LINE
  8
daiko
 10
4.308052
 20
1.569387
 30
0.000000
 11
1.407860
 21
0.748798
 31
0.000000
  0
LINE
  8
daiko
 10
3.987550
 20
2.187966
 30
0.000000
 11
4.319081
 21
2.017575
 31
0.000000
  0
LINE
  8
daiko
 10
0.942070
 20
1.342075
 30
0.000000
 11
0.903930
 21
1.352158
 31
0.000000
  0
LINE
  8
daiko
 10
46.695939
 20
14.366048
 30
0.000000
 11
49.849366
 21
15.253779
 31
0.000000
  0
LINE
  8
daiko
 10
49.106437
 20
14.535043
 30
0.000000
 11
48.958987
 21
14.493231
 31
0.000000
  0
LINE
  8
daiko
 10
49.838619
 20
13.898988
 30
0.000000
 11
49.838619
 21
14.576734
 31
0.000000
  0
LINE
  8
daiko
 10
49.868876
 20
14.585314
 30
0.000000
 11
47.662613
 21
13.959430
 31
0.000000
  0
LINE
  8
daiko
 10
49.094302
 20
16.184484
 30
0.000000
 11
49.008915
 21
16.233782
 31
0.000000
  0
LINE
  8
daiko
 10
49.953637
 20
15.688347
 30
0.000000
 11
49.868250
 21
15.737645
 31
0.000000
  0
LINE
  8
daiko
 10
49.979946
 20
15.695581
 30
0.000000
 11
49.894560
 21
15.744879
 31
0.000000
  0
LINE
  8
daiko
 10
49.120612
 20
16.191718
 30
0.000000
 11
49.035225
 21
16.241016
 31
0.000000
  0
LINE
  8
daiko
 10
49.838619
 20
15.021806
 30
0.000000
 11
49.499974
 21
15.156130
 31
0.000000
  0
LINE
  8
daiko
 10
49.726916
 20
14.424148
 30
0.000000
 11
49.726916
 21
14.402082
 31
0.000000
  0
LINE
  8
daiko
 10
49.742841
 20
14.392888
 30
0.000000
 11
49.761951
 21
14.403921
 31
0.000000
  0
LINE
  8
daiko
 10
49.761951
 20
14.403921
 30
0.000000
 11
49.761951
 21
14.374500
 31
0.000000
  0
LINE
  8
daiko
 10
49.761951
 20
14.374500
 30
0.000000
 11
49.742841
 21
14.363466
 31
0.000000
  0
LINE
  8
daiko
 10
49.726916
 20
14.335884
 30
0.000000
 11
49.726916
 21
14.313818
 31
0.000000
  0
LINE
  8
daiko
 10
49.726916
 20
14.313818
 30
0.000000
 11
49.701436
 21
14.299107
 31
0.000000
  0
LINE
  8
daiko
 10
49.701436
 20
14.299107
 30
0.000000
 11
49.701436
 21
14.321173
 31
0.000000
  0
LINE
  8
daiko
 10
49.685511
 20
14.330367
 30
0.000000
 11
49.666402
 21
14.319334
 31
0.000000
  0
LINE
  8
daiko
 10
49.666402
 20
14.319334
 30
0.000000
 11
49.666402
 21
14.348756
 31
0.000000
  0
LINE
  8
daiko
 10
49.666402
 20
14.348756
 30
0.000000
 11
49.685511
 21
14.359789
 31
0.000000
  0
LINE
  8
daiko
 10
49.701436
 20
14.387371
 30
0.000000
 11
49.701436
 21
14.409438
 31
0.000000
  0
LINE
  8
daiko
 10
49.701436
 20
14.409438
 30
0.000000
 11
49.726916
 21
14.424148
 31
0.000000
  0
LINE
  8
daiko
 10
49.868876
 20
14.969399
 30
0.000000
 11
49.868876
 21
14.585314
 31
0.000000
  0
LINE
  8
daiko
 10
49.836054
 20
15.022824
 30
0.000000
 11
47.552938
 21
14.377895
 31
0.000000
  0
LINE
  8
daiko
 10
1.081596
 20
1.822533
 30
0.000000
 11
49.989064
 21
15.688598
 31
0.000000
  0
LINE
  8
daiko
 10
0.986722
 20
1.877308
 30
0.000000
 11
49.894560
 21
15.744879
 31
0.000000
  0
LINE
  8
daiko
 10
49.810223
 20
15.800742
 30
0.000000
 11
0.991835
 21
1.957907
 31
0.000000
  0
LINE
  8
daiko
 10
0.872450
 20
2.110396
 30
0.000000
 11
49.594278
 21
15.925851
 31
0.000000
  0
LINE
  8
daiko
 10
49.360807
 20
16.085261
 30
0.000000
 11
0.678279
 21
2.280951
 31
0.000000
  0
LINE
  8
daiko
 10
49.152039
 20
16.181178
 30
0.000000
 11
49.281891
 21
16.106208
 31
0.000000
  0
LINE
  8
daiko
 10
0.351011
 20
2.415372
 30
0.000000
 11
49.152039
 21
16.181178
 31
0.000000
  0
LINE
  8
daiko
 10
0.126780
 20
2.373796
 30
0.000000
 11
49.120612
 21
16.191718
 31
0.000000
  0
LINE
  8
daiko
 10
0.012399
 20
2.432129
 30
0.000000
 11
49.018236
 21
16.244385
 31
0.000000
  0
LINE
  8
daiko
 10
49.594278
 20
15.925851
 30
0.000000
 11
49.808088
 21
15.802408
 31
0.000000
  0
LINE
  8
daiko
 10
49.812590
 20
15.797613
 30
0.000000
 11
49.849838
 21
15.732199
 31
0.000000
  0
LINE
  8
daiko
 10
46.878531
 20
13.736998
 30
0.000000
 11
5.018326
 21
1.770992
 31
0.000000
  0
LINE
  8
daiko
 10
46.884004
 20
14.188937
 30
0.000000
 11
4.968261
 21
2.217581
 31
0.000000
  0
LINE
  8
daiko
 10
4.399975
 20
2.304283
 30
0.000000
 11
46.695939
 21
14.366048
 31
0.000000
  0
LINE
  8
daiko
 10
1.289865
 20
0.001974
 30
0.000000
 11
49.834971
 21
13.888490
 31
0.000000
  0
TEXT
  8
daiko
 10
0.000000
 20
-10.000000
 30
0.000000
 40
4.000000
  1
LZY-92863NT
  7
BIGFONT
  0
TEXT
  8
daiko
 10
0.000000
 20
-14.000000
 30
0.000000
 40
3.000000
  1
LED18.5W       4000K
  7
BIGFONT
  0
TEXT
  8
daiko
 10
0.000000
 20
-18.000000
 30
0.000000
 40
3.000000
  1
演色性 Ra83    ｼﾙﾊﾞｰ
  7
BIGFONT
  0
ENDSEC
  0
EOF
