  0
SECTION
  2
HEADER
  9
$EXTMIN
 10
0.000000
 20
-19.000000
 30
0.000000
  9
$EXTMAX
 10
50.011248
 20
17.015596
 30
0.000000
  0
ENDSEC
  0
SECTION
  2
TABLES
  0
TABLE
  2
LTYPE
 70
    10
  0
LTYPE
  2
ByBlock
 70
     0
  3

 72
    65
 73
     0
 40
0.000000
  0
LTYPE
  2
ByLayer
 70
     0
  3

 72
    65
 73
     0
 40
0.000000
  0
LTYPE
  2
CENTER_DASH_DASH
 70
     0
  3
Center_Dash_Dash
 72
    65
 73
     6
 40
22.000000
 49
12.000000
 49
-3.000000
 49
0.500000
 49
-3.000000
 49
0.500000
 49
-3.000000
  0
LTYPE
  2
CONTINUOUS
 70
     0
  3
Solid line
 72
    65
 73
     0
 40
0.000000
  0
LTYPE
  2
DASHED
 70
     0
  3
Dashed
 72
    65
 73
     2
 40
15.000000
 49
12.000000
 49
-3.000000
  0
LTYPE
  2
DASH_CENTER
 70
     0
  3
Dash_Center
 72
    65
 73
     4
 40
36.000000
 49
24.000000
 49
-3.000000
 49
6.000000
 49
-3.000000
  0
LTYPE
  2
DOTTED
 70
     0
  3
Dotted
 72
    65
 73
     2
 40
3.500000
 49
0.500000
 49
-3.000000
  0
LTYPE
  2
DOT_CENTER
 70
     0
  3
Dot_Center
 72
    65
 73
     4
 40
2.000000
 49
1.250000
 49
-0.250000
 49
0.250000
 49
-0.250000
  0
LTYPE
  2
LONG_DASHED
 70
     0
  3
Long_Dashed
 72
    65
 73
     2
 40
2.000000
 49
1.500000
 49
-0.500000
  0
LTYPE
  2
PHANTOM
 70
     0
  3
Phantom
 72
    65
 73
     6
 40
2.500000
 49
1.250000
 49
-0.250000
 49
0.250000
 49
-0.250000
 49
0.250000
 49
-0.250000
  0
ENDTAB
  0
TABLE
  2
STYLE
 70
     2
  0
STYLE
  2
BIGFONT
 70
     0
 40
1.000000
 41
1.000000
 50
0.000000
 71
     0
 42
0.000000
  3
txt
  4
bigfont
  0
STYLE
  2
STANDARD
 70
     0
 40
0.000000
 41
1.000000
 50
0.000000
 71
     0
 42
0.000000
  3
txt
  4

  0
ENDTAB
  0
TABLE
  2
LAYER
 70
     1
  0
LAYER
  2
daiko
 70
     0
 62
     7
  6
CONTINUOUS
  0
ENDTAB
  0
ENDSEC
  0
SECTION
  2
ENTITIES
  0
ARC
  8
daiko
 10
0.748470
 20
1.411381
 30
0.000000
 40
0.048943
 50
188.896113
 51
267.480113
  0
ARC
  8
daiko
 10
1.516579
 20
1.438692
 30
0.000000
 40
0.048943
 50
8.896113
 51
105.963384
  0
ARC
  8
daiko
 10
1.177188
 20
1.392514
 30
0.000000
 40
0.048943
 50
188.896113
 51
285.963384
  0
ARC
  8
daiko
 10
1.938937
 20
1.161712
 30
0.000000
 40
0.118932
 50
180.000000
 51
285.815809
  0
ARC
  8
daiko
 10
45.616849
 20
13.588316
 30
0.000000
 40
0.079288
 50
285.815809
 51
0.000000
  0
ARC
  8
daiko
 10
45.826678
 20
14.126207
 30
0.000000
 40
0.118932
 50
239.574266
 51
285.773781
  0
ARC
  8
daiko
 10
45.824821
 20
14.129161
 30
0.000000
 40
0.079288
 50
240.000000
 51
285.773781
  0
ARC
  8
daiko
 10
1.983433
 20
1.174301
 30
0.000000
 40
0.118932
 50
180.000000
 51
285.815809
  0
ARC
  8
daiko
 10
5.996881
 20
2.268771
 30
0.000000
 40
0.079288
 50
285.815809
 51
0.000000
  0
ARC
  8
daiko
 10
6.206711
 20
2.806663
 30
0.000000
 40
0.118932
 50
239.574266
 51
285.773781
  0
ARC
  8
daiko
 10
6.204854
 20
2.809617
 30
0.000000
 40
0.079288
 50
240.000000
 51
285.773781
  0
ARC
  8
daiko
 10
46.388741
 20
14.299770
 30
0.000000
 40
0.090182
 50
286.449345
 51
332.500682
  0
ARC
  8
daiko
 10
46.404497
 20
14.292254
 30
0.000000
 40
0.121651
 50
285.765061
 51
335.487720
  0
ARC
  8
daiko
 10
46.710876
 20
13.957051
 30
0.000000
 40
0.136074
 50
186.805033
 51
279.718877
  0
ARC
  8
daiko
 10
46.710247
 20
13.906119
 30
0.000000
 40
0.086472
 50
203.142771
 51
285.837839
  0
ARC
  8
daiko
 10
0.527123
 20
1.862955
 30
0.000000
 40
0.117613
 50
177.158545
 51
243.164144
  0
ARC
  8
daiko
 10
0.591271
 20
1.845464
 30
0.000000
 40
0.138823
 50
177.592959
 51
212.376470
  0
ARC
  8
daiko
 10
7.617590
 20
2.877963
 30
0.000000
 40
0.107073
 50
194.830798
 51
16.832502
  0
ARC
  8
daiko
 10
4.005893
 20
1.853800
 30
0.000000
 40
0.107073
 50
194.830798
 51
16.832502
  0
ARC
  8
daiko
 10
45.036733
 20
13.571912
 30
0.000000
 40
0.107073
 50
194.830798
 51
16.832502
  0
ARC
  8
daiko
 10
0.467773
 20
2.727995
 30
0.000000
 40
0.646754
 50
54.514418
 51
110.381489
  0
ARC
  8
daiko
 10
-0.033687
 20
1.795875
 30
0.000000
 40
1.702027
 50
29.757743
 51
58.988575
  0
ARC
  8
daiko
 10
0.402360
 20
2.710008
 30
0.000000
 40
0.646754
 50
54.514418
 51
110.381489
  0
ARC
  8
daiko
 10
-0.099100
 20
1.777888
 30
0.000000
 40
1.702027
 50
29.757743
 51
58.988575
  0
ARC
  8
daiko
 10
2.127312
 20
0.991015
 30
0.000000
 40
0.192736
 50
263.150027
 51
28.032903
  0
ARC
  8
daiko
 10
2.180304
 20
0.960796
 30
0.000000
 40
0.048678
 50
302.804007
 51
357.195993
  0
ARC
  8
daiko
 10
2.277932
 20
0.976509
 30
0.000000
 40
0.013636
 50
169.617127
 51
310.382873
  0
ARC
  8
daiko
 10
2.313607
 20
0.883833
 30
0.000000
 40
0.049159
 50
123.091934
 51
176.908066
  0
ARC
  8
daiko
 10
2.215620
 20
0.868581
 30
0.000000
 40
0.013564
 50
348.746457
 51
131.253543
  0
ARC
  8
daiko
 10
2.162882
 20
0.872135
 30
0.000000
 40
0.093179
 50
176.370537
 51
231.065346
  0
ARC
  8
daiko
 10
2.338557
 20
0.864409
 30
0.000000
 40
0.269013
 50
123.669105
 51
177.096997
  0
ARC
  8
daiko
 10
2.248547
 20
1.001864
 30
0.000000
 40
0.104723
 50
89.023963
 51
124.376684
  0
ARC
  8
daiko
 10
2.248578
 20
1.046355
 30
0.000000
 40
0.060242
 50
35.802843
 51
88.332173
  0
ARC
  8
daiko
 10
1.771992
 20
1.580108
 30
0.000000
 40
0.092531
 50
1.257920
 51
58.742080
  0
ARC
  8
daiko
 10
1.379378
 20
1.782559
 30
0.000000
 40
0.069088
 50
57.004563
 51
98.908730
  0
ARC
  8
daiko
 10
1.343743
 20
1.763277
 30
0.000000
 40
0.148005
 50
59.804328
 51
68.618306
  0
ARC
  8
daiko
 10
1.337447
 20
1.944690
 30
0.000000
 40
0.072958
 50
252.989403
 51
307.250662
  0
ARC
  8
daiko
 10
1.280782
 20
1.976013
 30
0.000000
 40
0.089062
 50
235.044373
 51
302.264207
  0
ARC
  8
daiko
 10
1.177741
 20
1.934106
 30
0.000000
 40
0.064603
 50
235.473658
 51
280.439636
  0
ARC
  8
daiko
 10
1.194259
 20
1.907175
 30
0.000000
 40
0.094222
 50
234.796620
 51
281.116673
  0
ARC
  8
daiko
 10
1.233258
 20
0.724263
 30
0.000000
 40
0.439867
 50
328.063570
 51
11.727599
  0
ARC
  8
daiko
 10
1.494123
 20
0.567972
 30
0.000000
 40
0.135919
 50
265.139125
 51
325.804374
  0
ARC
  8
daiko
 10
1.142956
 20
0.721873
 30
0.000000
 40
0.479650
 50
334.611707
 51
10.858995
  0
ARC
  8
daiko
 10
1.445249
 20
0.568636
 30
0.000000
 40
0.141127
 50
264.279618
 51
338.198759
  0
ARC
  8
daiko
 10
1.483532
 20
0.655129
 30
0.000000
 40
0.232878
 50
215.358251
 51
257.009243
  0
ARC
  8
daiko
 10
1.760567
 20
0.849266
 30
0.000000
 40
0.571162
 50
188.668319
 51
215.158786
  0
ARC
  8
daiko
 10
1.649985
 20
0.824481
 30
0.000000
 40
0.428608
 50
162.418797
 51
193.522177
  0
ARC
  8
daiko
 10
1.540268
 20
0.768414
 30
0.000000
 40
0.310169
 50
188.183591
 51
234.663281
  0
ARC
  8
daiko
 10
1.420653
 20
0.598129
 30
0.000000
 40
0.101869
 50
235.741413
 51
309.209560
  0
ARC
  8
daiko
 10
1.265846
 20
0.713053
 30
0.000000
 40
0.292628
 50
318.511763
 51
1.639102
  0
ARC
  8
daiko
 10
1.101997
 20
0.726100
 30
0.000000
 40
0.456381
 50
359.412857
 51
29.811031
  0
ARC
  8
daiko
 10
1.326286
 20
0.872534
 30
0.000000
 40
0.189613
 50
25.106090
 51
74.344430
  0
ARC
  8
daiko
 10
1.357930
 20
0.958195
 30
0.000000
 40
0.098864
 50
78.610229
 51
128.281670
  0
ARC
  8
daiko
 10
1.416011
 20
0.895611
 30
0.000000
 40
0.184100
 50
130.404678
 51
161.526952
  0
ARC
  8
daiko
 10
1.459944
 20
2.465391
 30
0.000000
 40
0.095548
 50
0.914586
 51
57.682646
  0
ARC
  8
daiko
 10
1.525566
 20
2.483495
 30
0.000000
 40
0.095338
 50
0.846391
 51
57.750842
  0
ARC
  8
daiko
 10
0.787234
 20
2.469046
 30
0.000000
 40
0.833811
 50
317.066394
 51
1.089679
  0
ARC
  8
daiko
 10
0.770957
 20
2.452980
 30
0.000000
 40
0.784647
 50
315.262841
 51
1.017693
  0
ARC
  8
daiko
 10
1.389780
 20
2.284939
 30
0.000000
 40
0.089143
 50
306.922806
 51
4.900762
  0
ARC
  8
daiko
 10
1.408934
 20
2.279778
 30
0.000000
 40
0.074518
 50
250.276592
 51
297.490936
  0
ARC
  8
daiko
 10
1.471530
 20
2.420513
 30
0.000000
 40
0.228408
 50
209.093487
 51
247.408533
  0
ARC
  8
daiko
 10
1.459245
 20
2.434545
 30
0.000000
 40
0.225235
 50
177.539194
 51
213.737340
  0
ARC
  8
daiko
 10
1.307179
 20
2.449958
 30
0.000000
 40
0.073188
 50
114.717076
 51
184.499671
  0
ARC
  8
daiko
 10
1.300241
 20
2.400717
 30
0.000000
 40
0.118118
 50
49.152417
 51
101.556962
  0
ARC
  8
daiko
 10
1.202759
 20
2.274780
 30
0.000000
 40
0.277276
 50
7.857358
 51
50.935802
  0
ARC
  8
daiko
 10
1.300667
 20
2.292349
 30
0.000000
 40
0.177931
 50
0.066163
 51
6.562831
  0
ARC
  8
daiko
 10
1.387357
 20
2.309296
 30
0.000000
 40
0.013577
 50
48.906717
 51
191.093283
  0
ARC
  8
daiko
 10
1.289487
 20
2.324663
 30
0.000000
 40
0.049018
 50
3.008281
 51
56.991719
  0
ARC
  8
daiko
 10
1.422607
 20
2.401520
 30
0.000000
 40
0.048630
 50
182.775041
 51
237.224959
  0
ARC
  8
daiko
 10
1.324971
 20
2.417353
 30
0.000000
 40
0.013673
 50
230.045395
 51
9.954605
  0
ARC
  8
daiko
 10
0.421815
 20
2.839336
 30
0.000000
 40
0.523302
 50
7.543672
 51
38.565466
  0
ARC
  8
daiko
 10
0.694029
 20
3.084854
 30
0.000000
 40
0.158969
 50
30.512807
 51
104.617187
  0
ARC
  8
daiko
 10
0.590560
 20
2.988636
 30
0.000000
 40
0.257942
 50
28.326140
 51
75.782343
  0
ARC
  8
daiko
 10
0.308939
 20
2.814022
 30
0.000000
 40
0.589036
 50
8.735019
 51
30.279693
  0
ARC
  8
daiko
 10
0.642206
 20
3.106907
 30
0.000000
 40
0.132289
 50
84.923335
 51
134.640165
  0
ARC
  8
daiko
 10
0.862576
 20
2.950476
 30
0.000000
 40
0.401188
 50
141.351325
 51
193.852213
  0
ARC
  8
daiko
 10
0.683720
 20
2.678116
 30
0.000000
 40
0.048874
 50
182.921880
 51
237.078120
  0
ARC
  8
daiko
 10
0.551238
 20
2.601627
 30
0.000000
 40
0.048120
 50
2.462164
 51
57.537836
  0
ARC
  8
daiko
 10
0.585381
 20
2.694620
 30
0.000000
 40
0.014020
 50
233.628815
 51
6.371185
  0
ARC
  8
daiko
 10
0.648212
 20
2.585793
 30
0.000000
 40
0.013563
 50
48.732546
 51
191.267454
  0
ARC
  8
daiko
 10
0.601844
 20
2.686525
 30
0.000000
 40
0.236764
 50
19.685134
 51
73.384022
  0
ARC
  8
daiko
 10
0.436066
 20
2.589623
 30
0.000000
 40
0.426966
 50
337.945243
 51
24.440529
  0
ARC
  8
daiko
 10
0.711176
 20
2.481942
 30
0.000000
 40
0.131600
 50
284.485453
 51
336.420815
  0
ARC
  8
daiko
 10
0.729076
 20
2.474617
 30
0.000000
 40
0.121027
 50
231.034657
 51
277.127854
  0
ARC
  8
daiko
 10
0.890897
 20
2.648156
 30
0.000000
 40
0.358108
 50
193.191082
 51
228.363350
  0
ARC
  8
daiko
 10
0.921237
 20
2.682322
 30
0.000000
 40
0.396320
 50
161.132460
 51
197.001961
  0
ARC
  8
daiko
 10
0.666278
 20
2.791959
 30
0.000000
 40
0.121487
 50
88.457453
 51
171.229097
  0
ARC
  8
daiko
 10
0.089223
 20
3.377311
 30
0.000000
 40
0.039388
 50
58.185741
 51
93.879468
  0
ARC
  8
daiko
 10
0.025683
 20
3.366414
 30
0.000000
 40
0.032447
 50
54.395484
 51
104.933788
  0
ARC
  8
daiko
 10
0.024428
 20
3.376313
 30
0.000000
 40
0.022599
 50
108.327643
 51
156.428876
  0
ARC
  8
daiko
 10
0.042095
 20
3.368059
 30
0.000000
 40
0.042095
 50
155.748511
 51
184.297608
  0
ARC
  8
daiko
 10
1.948920
 20
3.455603
 30
0.000000
 40
1.950911
 50
182.664662
 51
208.669824
  0
ARC
  8
daiko
 10
0.167641
 20
3.086065
 30
0.000000
 40
0.014012
 50
233.555853
 51
6.444147
  0
ARC
  8
daiko
 10
0.265854
 20
3.069510
 30
0.000000
 40
0.048753
 50
182.849587
 51
237.150413
  0
ARC
  8
daiko
 10
0.132637
 20
2.992597
 30
0.000000
 40
0.048995
 50
2.994479
 51
57.005521
  0
ARC
  8
daiko
 10
0.230633
 20
2.976961
 30
0.000000
 40
0.013676
 50
50.081072
 51
189.918928
  0
ARC
  8
daiko
 10
0.155840
 20
3.113630
 30
0.000000
 40
0.079726
 50
120.074715
 51
188.557134
  0
ARC
  8
daiko
 10
0.147351
 20
3.095165
 30
0.000000
 40
0.092945
 50
57.828761
 51
109.786885
  0
ARC
  8
daiko
 10
0.051021
 20
2.944471
 30
0.000000
 40
0.271795
 50
6.369917
 51
57.554236
  0
ARC
  8
daiko
 10
0.216658
 20
2.957931
 30
0.000000
 40
0.105806
 50
321.512745
 51
9.078292
  0
ARC
  8
daiko
 10
0.251719
 20
2.942250
 30
0.000000
 40
0.069264
 50
249.363613
 51
313.591671
  0
ARC
  8
daiko
 10
0.337438
 20
3.113739
 30
0.000000
 40
0.260712
 50
182.632098
 51
245.012458
  0
ARC
  8
daiko
 10
6.584078
 20
2.419511
 30
0.000000
 40
0.187478
 50
46.581357
 51
136.148804
  0
ARC
  8
daiko
 10
6.632042
 20
2.358710
 30
0.000000
 40
0.264403
 50
133.847448
 51
194.236041
  0
ARC
  8
daiko
 10
6.547070
 20
2.329445
 30
0.000000
 40
0.175034
 50
191.620679
 51
262.483538
  0
ARC
  8
daiko
 10
6.533503
 20
2.379531
 30
0.000000
 40
0.223811
 50
267.611114
 51
326.274892
  0
ARC
  8
daiko
 10
6.479522
 20
2.416522
 30
0.000000
 40
0.315771
 50
285.489719
 51
330.831830
  0
ARC
  8
daiko
 10
6.503900
 20
2.336178
 30
0.000000
 40
0.231891
 50
238.191734
 51
285.767795
  0
ARC
  8
daiko
 10
6.542866
 20
2.371391
 30
0.000000
 40
0.282729
 50
184.795470
 51
235.240972
  0
ARC
  8
daiko
 10
6.620360
 20
2.384529
 30
0.000000
 40
0.361110
 50
125.275353
 51
185.844794
  0
ARC
  8
daiko
 10
6.559060
 20
2.491454
 30
0.000000
 40
0.238704
 50
32.046507
 51
128.086174
  0
ARC
  8
daiko
 10
6.919485
 20
3.006707
 30
0.000000
 40
0.091365
 50
2.441483
 51
57.558517
  0
ARC
  8
daiko
 10
6.742288
 20
4.035498
 30
0.000000
 40
1.210318
 50
226.774838
 51
262.629450
  0
ARC
  8
daiko
 10
6.608095
 20
3.781366
 30
0.000000
 40
0.727165
 50
230.637579
 51
266.601076
  0
ARC
  8
daiko
 10
5.976425
 20
2.737674
 30
0.000000
 40
0.100043
 50
4.431259
 51
73.619227
  0
ARC
  8
daiko
 10
46.539452
 20
14.325965
 30
0.000000
 40
0.091378
 50
2.620811
 51
63.216804
  0
ARC
  8
daiko
 10
45.604131
 20
14.060638
 30
0.000000
 40
0.092107
 50
2.682088
 51
57.317912
  0
ARC
  8
daiko
 10
6.616784
 20
2.614613
 30
0.000000
 40
0.443900
 50
54.970317
 51
96.701348
  0
ARC
  8
daiko
 10
6.529121
 20
2.625931
 30
0.000000
 40
0.491228
 50
11.335293
 51
45.800860
  0
ARC
  8
daiko
 10
6.695958
 20
2.596486
 30
0.000000
 40
0.339087
 50
280.070612
 51
21.812803
  0
ARC
  8
daiko
 10
6.614115
 20
2.871968
 30
0.000000
 40
0.625476
 50
247.599470
 51
283.040865
  0
ARC
  8
daiko
 10
6.580451
 20
2.742139
 30
0.000000
 40
0.228729
 50
235.937883
 51
305.395872
  0
ARC
  8
daiko
 10
6.627627
 20
2.671917
 30
0.000000
 40
0.144178
 50
306.277429
 51
74.888026
  0
ARC
  8
daiko
 10
6.493471
 20
2.392246
 30
0.000000
 40
0.452705
 50
67.705228
 51
78.074122
  0
ARC
  8
daiko
 10
0.468259
 20
2.622541
 30
0.000000
 40
0.252947
 50
204.006564
 51
238.917206
  0
ARC
  8
daiko
 10
1.792919
 20
0.016276
 30
0.000000
 40
0.016276
 50
228.738333
 51
11.261667
  0
ARC
  8
daiko
 10
0.532871
 20
0.793279
 30
0.000000
 40
0.058927
 50
183.060217
 51
236.939783
  0
ARC
  8
daiko
 10
1.379235
 20
0.820944
 30
0.000000
 40
0.048003
 50
182.388974
 51
237.611026
  0
ARC
  8
daiko
 10
1.344607
 20
0.729057
 30
0.000000
 40
0.013583
 50
48.981865
 51
191.018135
  0
ARC
  8
daiko
 10
1.247727
 20
0.745066
 30
0.000000
 40
0.047951
 50
0.222105
 51
57.586247
  0
ARC
  8
daiko
 10
1.282123
 20
0.837284
 30
0.000000
 40
0.013735
 50
230.738874
 51
9.261126
  0
ARC
  8
daiko
 10
48.648431
 20
14.596075
 30
0.000000
 40
0.107073
 50
194.830798
 51
16.832502
  0
ARC
  8
daiko
 10
48.936684
 20
16.385766
 30
0.000000
 40
0.582079
 50
54.514418
 51
106.820815
  0
ARC
  8
daiko
 10
48.485370
 20
15.546858
 30
0.000000
 40
1.531824
 50
29.757743
 51
58.988575
  0
ARC
  8
daiko
 10
48.522125
 20
15.556965
 30
0.000000
 40
1.531824
 50
29.757743
 51
58.988575
  0
ARC
  8
daiko
 10
48.973439
 20
16.395873
 30
0.000000
 40
0.582079
 50
54.514418
 51
110.381489
  0
ARC
  8
daiko
 10
49.480540
 20
14.453378
 30
0.000000
 40
0.192736
 50
263.150027
 51
28.032903
  0
ARC
  8
daiko
 10
49.729365
 20
15.232025
 30
0.000000
 40
0.086725
 50
1.232196
 51
61.897698
  0
ARC
  8
daiko
 10
49.154440
 20
16.182668
 30
0.000000
 40
0.820202
 50
316.762198
 51
358.904250
  0
ARC
  8
daiko
 10
49.214952
 20
16.183273
 30
0.000000
 40
0.796320
 50
316.107419
 51
359.555090
  0
ARC
  8
daiko
 10
49.631295
 20
14.439107
 30
0.000000
 40
0.013730
 50
170.685510
 51
309.314490
  0
ARC
  8
daiko
 10
49.533974
 20
14.422903
 30
0.000000
 40
0.048223
 50
302.526052
 51
357.473948
  0
ARC
  8
daiko
 10
49.568757
 20
14.330787
 30
0.000000
 40
0.013624
 50
349.467804
 51
130.532196
  0
ARC
  8
daiko
 10
49.666000
 20
14.346678
 30
0.000000
 40
0.048302
 50
122.574525
 51
177.425475
  0
ARC
  8
daiko
 10
49.505351
 20
14.327576
 30
0.000000
 40
0.081134
 50
186.463518
 51
233.904449
  0
ARC
  8
daiko
 10
49.683065
 20
14.332225
 30
0.000000
 40
0.258700
 50
142.508142
 51
183.053911
  0
ARC
  8
daiko
 10
49.641828
 20
14.379689
 30
0.000000
 40
0.197491
 50
111.531055
 51
146.154713
  0
ARC
  8
daiko
 10
49.598491
 20
14.505515
 30
0.000000
 40
0.064807
 50
36.385584
 51
116.724157
  0
ARC
  8
daiko
 10
49.887567
 20
16.165081
 30
0.000000
 40
0.086947
 50
1.253459
 51
57.343774
  0
ARC
  8
daiko
 10
49.925463
 20
16.175828
 30
0.000000
 40
0.085794
 50
0.842809
 51
57.754423
  0
ARC
  8
daiko
 10
48.633507
 20
16.982184
 30
0.000000
 40
0.033412
 50
57.555729
 51
100.014261
  0
ARC
  8
daiko
 10
48.595817
 20
16.969160
 30
0.000000
 40
0.036392
 50
58.244755
 51
96.348246
  0
ARC
  8
daiko
 10
49.755102
 20
13.736768
 30
0.000000
 40
0.018776
 50
316.416891
 51
5.260403
  0
ARC
  8
daiko
 10
49.702047
 20
16.369069
 30
0.000000
 40
0.028746
 50
39.081008
 51
58.560779
  0
ARC
  8
daiko
 10
49.144901
 20
17.096383
 30
0.000000
 40
0.322568
 50
239.652695
 51
247.145456
  0
ARC
  8
daiko
 10
49.080898
 20
16.929386
 30
0.000000
 40
0.143943
 50
244.803569
 51
269.885923
  0
ARC
  8
daiko
 10
49.082726
 20
16.671825
 30
0.000000
 40
0.113638
 50
75.376498
 51
91.066657
  0
ARC
  8
daiko
 10
48.972811
 20
16.367525
 30
0.000000
 40
0.436830
 50
42.161273
 51
71.500386
  0
ARC
  8
daiko
 10
49.734254
 20
17.097779
 30
0.000000
 40
0.618496
 50
224.961099
 51
239.284546
  0
LINE
  8
daiko
 10
1.084800
 20
1.986707
 30
0.000000
 11
1.229755
 21
1.903018
 31
0.000000
  0
LINE
  8
daiko
 10
1.141125
 20
1.880882
 30
0.000000
 11
1.097415
 21
1.906118
 31
0.000000
  0
LINE
  8
daiko
 10
1.104604
 20
1.850589
 30
0.000000
 11
1.139942
 21
1.830186
 31
0.000000
  0
LINE
  8
daiko
 10
1.212426
 20
1.814722
 30
0.000000
 11
1.368679
 21
1.850813
 31
0.000000
  0
LINE
  8
daiko
 10
1.265828
 20
1.888215
 30
0.000000
 11
1.189447
 21
1.870572
 31
0.000000
  0
LINE
  8
daiko
 10
1.175036
 20
1.343618
 30
0.000000
 11
0.746318
 21
1.362486
 31
0.000000
  0
LINE
  8
daiko
 10
1.159394
 20
1.510148
 30
0.000000
 11
1.519645
 21
1.487539
 31
0.000000
  0
LINE
  8
daiko
 10
1.177781
 20
1.392684
 30
0.000000
 11
1.503119
 21
1.485748
 31
0.000000
  0
LINE
  8
daiko
 10
1.190648
 20
1.345458
 30
0.000000
 11
1.515987
 21
1.438523
 31
0.000000
  0
LINE
  8
daiko
 10
1.104591
 20
1.346718
 30
0.000000
 11
1.195930
 21
0.763183
 31
0.000000
  0
LINE
  8
daiko
 10
1.614017
 20
0.812235
 30
0.000000
 11
1.515987
 21
1.438523
 31
0.000000
  0
LINE
  8
daiko
 10
1.663461
 20
0.816796
 30
0.000000
 11
1.564934
 21
1.446261
 31
0.000000
  0
LINE
  8
daiko
 10
46.575760
 20
13.940927
 30
0.000000
 11
46.575760
 21
14.346703
 31
0.000000
  0
LINE
  8
daiko
 10
46.414278
 20
14.213279
 30
0.000000
 11
45.846375
 21
14.052859
 31
0.000000
  0
LINE
  8
daiko
 10
46.437549
 20
14.175179
 30
0.000000
 11
45.859008
 21
14.011754
 31
0.000000
  0
LINE
  8
daiko
 10
46.575760
 20
14.346703
 30
0.000000
 11
46.560793
 21
14.417579
 31
0.000000
  0
LINE
  8
daiko
 10
45.766448
 20
14.023654
 30
0.000000
 11
45.696137
 21
14.064948
 31
0.000000
  0
LINE
  8
daiko
 10
46.575760
 20
14.346703
 30
0.000000
 11
46.515184
 21
14.241782
 31
0.000000
  0
LINE
  8
daiko
 10
45.785177
 20
14.060496
 30
0.000000
 11
45.624607
 21
14.153201
 31
0.000000
  0
LINE
  8
daiko
 10
46.560793
 20
14.417579
 30
0.000000
 11
46.468734
 21
14.258129
 31
0.000000
  0
LINE
  8
daiko
 10
46.630734
 20
14.330143
 30
0.000000
 11
46.630734
 21
13.872133
 31
0.000000
  0
LINE
  8
daiko
 10
45.696137
 20
14.064948
 30
0.000000
 11
45.696137
 21
13.588316
 31
0.000000
  0
LINE
  8
daiko
 10
46.177528
 20
14.614554
 30
0.000000
 11
46.588464
 21
14.403357
 31
0.000000
  0
LINE
  8
daiko
 10
45.240307
 20
14.350714
 30
0.000000
 11
45.653866
 21
14.138163
 31
0.000000
  0
LINE
  8
daiko
 10
0.409655
 20
1.868785
 30
0.000000
 11
0.409655
 21
2.361881
 31
0.000000
  0
LINE
  8
daiko
 10
1.418183
 20
1.891200
 30
0.000000
 11
6.146910
 21
3.219159
 31
0.000000
  0
LINE
  8
daiko
 10
1.418183
 20
1.891200
 30
0.000000
 11
1.820006
 21
1.659207
 31
0.000000
  0
LINE
  8
daiko
 10
1.820006
 20
1.161712
 30
0.000000
 11
1.820006
 21
1.607829
 31
0.000000
  0
LINE
  8
daiko
 10
1.808882
 20
1.614251
 30
0.000000
 11
1.808882
 21
0.019455
 31
0.000000
  0
LINE
  8
daiko
 10
1.177781
 20
1.392684
 30
0.000000
 11
0.940588
 21
2.908036
 31
0.000000
  0
LINE
  8
daiko
 10
0.452571
 20
2.335627
 30
0.000000
 11
0.452571
 21
1.839634
 31
0.000000
  0
LINE
  8
daiko
 10
1.128834
 20
1.384945
 30
0.000000
 11
0.891144
 21
2.903476
 31
0.000000
  0
LINE
  8
daiko
 10
0.473056
 20
2.854424
 30
0.000000
 11
0.700115
 21
1.403813
 31
0.000000
  0
LINE
  8
daiko
 10
7.720076
 20
2.908969
 30
0.000000
 11
7.514084
 21
2.850556
 31
0.000000
  0
LINE
  8
daiko
 10
4.108378
 20
1.884806
 30
0.000000
 11
3.902387
 21
1.826393
 31
0.000000
  0
LINE
  8
daiko
 10
45.139219
 20
13.602918
 30
0.000000
 11
44.933227
 21
13.544505
 31
0.000000
  0
LINE
  8
daiko
 10
6.955793
 20
2.869731
 30
0.000000
 11
6.955793
 21
3.027158
 31
0.000000
  0
LINE
  8
daiko
 10
6.564983
 20
3.055481
 30
0.000000
 11
6.237255
 21
3.244694
 31
0.000000
  0
LINE
  8
daiko
 10
6.587021
 20
2.835180
 30
0.000000
 11
6.226407
 21
2.733314
 31
0.000000
  0
LINE
  8
daiko
 10
6.663143
 20
2.812009
 30
0.000000
 11
6.239041
 21
2.692210
 31
0.000000
  0
LINE
  8
daiko
 10
6.955793
 20
3.027158
 30
0.000000
 11
6.940825
 21
3.098034
 31
0.000000
  0
LINE
  8
daiko
 10
6.146481
 20
2.704110
 30
0.000000
 11
6.076169
 21
2.745404
 31
0.000000
  0
LINE
  8
daiko
 10
6.955793
 20
3.027158
 30
0.000000
 11
6.906644
 21
2.942030
 31
0.000000
  0
LINE
  8
daiko
 10
6.165210
 20
2.740951
 30
0.000000
 11
6.004639
 21
2.833657
 31
0.000000
  0
LINE
  8
daiko
 10
6.940825
 20
3.098034
 30
0.000000
 11
6.871583
 21
2.978103
 31
0.000000
  0
LINE
  8
daiko
 10
6.505450
 20
3.321791
 30
0.000000
 11
6.968497
 21
3.083813
 31
0.000000
  0
LINE
  8
daiko
 10
7.010767
 20
3.010599
 30
0.000000
 11
7.010767
 21
2.722482
 31
0.000000
  0
LINE
  8
daiko
 10
1.820006
 20
1.607829
 30
0.000000
 11
1.808882
 21
1.614251
 31
0.000000
  0
LINE
  8
daiko
 10
1.864501
 20
1.582140
 30
0.000000
 11
1.864501
 21
1.174301
 31
0.000000
  0
LINE
  8
daiko
 10
0.474028
 20
0.790133
 30
0.000000
 11
0.474028
 21
2.322499
 31
0.000000
  0
LINE
  8
daiko
 10
1.782185
 20
0.004041
 30
0.000000
 11
0.500725
 21
0.743892
 31
0.000000
  0
LINE
  8
daiko
 10
0.500725
 20
0.774719
 30
0.000000
 11
1.782185
 21
0.034868
 31
0.000000
  0
LINE
  8
daiko
 10
1.782185
 20
0.034868
 30
0.000000
 11
1.782185
 21
1.629665
 31
0.000000
  0
LINE
  8
daiko
 10
1.808882
 20
1.614251
 30
0.000000
 11
1.782185
 21
1.629665
 31
0.000000
  0
LINE
  8
daiko
 10
1.768836
 20
0.052851
 30
0.000000
 11
0.514074
 21
0.777288
 31
0.000000
  0
LINE
  8
daiko
 10
0.514074
 20
0.777288
 30
0.000000
 11
0.514074
 21
2.298000
 31
0.000000
  0
LINE
  8
daiko
 10
0.337669
 20
2.405920
 30
0.000000
 11
0.565031
 21
2.266826
 31
0.000000
  0
LINE
  8
daiko
 10
0.242529
 20
3.334259
 30
0.000000
 11
0.109987
 21
3.410782
 31
0.000000
  0
LINE
  8
daiko
 10
1.576439
 20
2.564125
 30
0.000000
 11
1.443897
 21
2.640648
 31
0.000000
  0
LINE
  8
daiko
 10
1.331274
 20
0.849770
 30
0.000000
 11
1.331274
 21
0.818943
 31
0.000000
  0
LINE
  8
daiko
 10
1.353522
 20
0.780409
 30
0.000000
 11
1.380219
 21
0.764995
 31
0.000000
  0
LINE
  8
daiko
 10
1.380219
 20
0.764995
 30
0.000000
 11
1.380219
 21
0.723892
 31
0.000000
  0
LINE
  8
daiko
 10
1.380219
 20
0.723892
 30
0.000000
 11
1.353522
 21
0.739306
 31
0.000000
  0
LINE
  8
daiko
 10
1.331274
 20
0.726461
 30
0.000000
 11
1.331274
 21
0.695634
 31
0.000000
  0
LINE
  8
daiko
 10
1.331274
 20
0.695634
 30
0.000000
 11
1.295678
 21
0.716186
 31
0.000000
  0
LINE
  8
daiko
 10
1.295678
 20
0.716186
 30
0.000000
 11
1.295678
 21
0.747013
 31
0.000000
  0
LINE
  8
daiko
 10
1.273431
 20
0.785547
 30
0.000000
 11
1.246734
 21
0.800960
 31
0.000000
  0
LINE
  8
daiko
 10
1.246734
 20
0.800960
 30
0.000000
 11
1.246734
 21
0.842063
 31
0.000000
  0
LINE
  8
daiko
 10
1.246734
 20
0.842063
 30
0.000000
 11
1.273431
 21
0.826649
 31
0.000000
  0
LINE
  8
daiko
 10
1.295678
 20
0.839494
 30
0.000000
 11
1.295678
 21
0.870321
 31
0.000000
  0
LINE
  8
daiko
 10
1.295678
 20
0.870321
 30
0.000000
 11
1.331274
 21
0.849770
 31
0.000000
  0
LINE
  8
daiko
 10
1.338438
 20
2.450544
 30
0.000000
 11
1.374034
 21
2.429992
 31
0.000000
  0
LINE
  8
daiko
 10
1.374034
 20
2.429992
 30
0.000000
 11
1.374034
 21
2.399165
 31
0.000000
  0
LINE
  8
daiko
 10
1.396281
 20
2.360631
 30
0.000000
 11
1.422979
 21
2.345218
 31
0.000000
  0
LINE
  8
daiko
 10
1.422979
 20
2.345218
 30
0.000000
 11
1.422979
 21
2.304115
 31
0.000000
  0
LINE
  8
daiko
 10
1.422979
 20
2.304115
 30
0.000000
 11
1.396281
 21
2.319529
 31
0.000000
  0
LINE
  8
daiko
 10
1.374034
 20
2.306684
 30
0.000000
 11
1.374034
 21
2.275857
 31
0.000000
  0
LINE
  8
daiko
 10
1.374034
 20
2.275857
 30
0.000000
 11
1.338438
 21
2.296408
 31
0.000000
  0
LINE
  8
daiko
 10
1.338438
 20
2.296408
 30
0.000000
 11
1.338438
 21
2.327235
 31
0.000000
  0
LINE
  8
daiko
 10
1.316190
 20
2.365769
 30
0.000000
 11
1.289493
 21
2.381183
 31
0.000000
  0
LINE
  8
daiko
 10
1.289493
 20
2.381183
 30
0.000000
 11
1.289493
 21
2.422286
 31
0.000000
  0
LINE
  8
daiko
 10
1.289493
 20
2.422286
 30
0.000000
 11
1.316190
 21
2.406872
 31
0.000000
  0
LINE
  8
daiko
 10
1.338438
 20
2.419717
 30
0.000000
 11
1.338438
 21
2.450544
 31
0.000000
  0
LINE
  8
daiko
 10
0.217161
 20
3.097913
 30
0.000000
 11
0.217161
 21
3.067086
 31
0.000000
  0
LINE
  8
daiko
 10
0.239409
 20
3.028552
 30
0.000000
 11
0.266106
 21
3.013139
 31
0.000000
  0
LINE
  8
daiko
 10
0.266106
 20
3.013139
 30
0.000000
 11
0.266106
 21
2.972036
 31
0.000000
  0
LINE
  8
daiko
 10
0.266106
 20
2.972036
 30
0.000000
 11
0.239409
 21
2.987449
 31
0.000000
  0
LINE
  8
daiko
 10
0.217161
 20
2.974605
 30
0.000000
 11
0.217161
 21
2.943778
 31
0.000000
  0
LINE
  8
daiko
 10
0.217161
 20
2.943778
 30
0.000000
 11
0.181565
 21
2.964329
 31
0.000000
  0
LINE
  8
daiko
 10
0.181565
 20
2.964329
 30
0.000000
 11
0.181565
 21
2.995156
 31
0.000000
  0
LINE
  8
daiko
 10
0.159317
 20
3.033690
 30
0.000000
 11
0.132620
 21
3.049104
 31
0.000000
  0
LINE
  8
daiko
 10
0.132620
 20
3.049104
 30
0.000000
 11
0.132620
 21
3.090207
 31
0.000000
  0
LINE
  8
daiko
 10
0.132620
 20
3.090207
 30
0.000000
 11
0.159317
 21
3.074793
 31
0.000000
  0
LINE
  8
daiko
 10
0.181565
 20
3.087638
 30
0.000000
 11
0.181565
 21
3.118465
 31
0.000000
  0
LINE
  8
daiko
 10
0.181565
 20
3.118465
 30
0.000000
 11
0.217161
 21
3.097913
 31
0.000000
  0
LINE
  8
daiko
 10
0.634910
 20
2.706451
 30
0.000000
 11
0.634910
 21
2.675624
 31
0.000000
  0
LINE
  8
daiko
 10
0.657158
 20
2.637090
 30
0.000000
 11
0.683855
 21
2.621677
 31
0.000000
  0
LINE
  8
daiko
 10
0.683855
 20
2.621677
 30
0.000000
 11
0.683855
 21
2.580574
 31
0.000000
  0
LINE
  8
daiko
 10
0.683855
 20
2.580574
 30
0.000000
 11
0.657158
 21
2.595988
 31
0.000000
  0
LINE
  8
daiko
 10
0.634910
 20
2.583143
 30
0.000000
 11
0.634910
 21
2.552316
 31
0.000000
  0
LINE
  8
daiko
 10
0.634910
 20
2.552316
 30
0.000000
 11
0.599314
 21
2.572867
 31
0.000000
  0
LINE
  8
daiko
 10
0.599314
 20
2.572867
 30
0.000000
 11
0.599314
 21
2.603694
 31
0.000000
  0
LINE
  8
daiko
 10
0.577066
 20
2.642228
 30
0.000000
 11
0.550369
 21
2.657642
 31
0.000000
  0
LINE
  8
daiko
 10
0.550369
 20
2.657642
 30
0.000000
 11
0.550369
 21
2.698745
 31
0.000000
  0
LINE
  8
daiko
 10
0.550369
 20
2.698745
 30
0.000000
 11
0.577066
 21
2.683331
 31
0.000000
  0
LINE
  8
daiko
 10
0.599314
 20
2.696176
 30
0.000000
 11
0.599314
 21
2.727003
 31
0.000000
  0
LINE
  8
daiko
 10
0.599314
 20
2.727003
 30
0.000000
 11
0.634910
 21
2.706451
 31
0.000000
  0
LINE
  8
daiko
 10
0.177115
 20
3.316272
 30
0.000000
 11
0.044573
 21
3.392795
 31
0.000000
  0
LINE
  8
daiko
 10
1.511025
 20
2.546139
 30
0.000000
 11
1.378483
 21
2.622662
 31
0.000000
  0
LINE
  8
daiko
 10
1.782185
 20
1.629665
 30
0.000000
 11
1.417001
 21
1.840504
 31
0.000000
  0
LINE
  8
daiko
 10
2.228923
 20
0.989242
 30
0.000000
 11
2.264519
 21
1.009793
 31
0.000000
  0
LINE
  8
daiko
 10
2.228923
 20
0.958415
 30
0.000000
 11
2.228923
 21
0.989242
 31
0.000000
  0
LINE
  8
daiko
 10
2.179979
 20
0.904467
 30
0.000000
 11
2.206676
 21
0.919881
 31
0.000000
  0
LINE
  8
daiko
 10
2.179979
 20
0.863365
 30
0.000000
 11
2.179979
 21
0.904467
 31
0.000000
  0
LINE
  8
daiko
 10
2.206676
 20
0.878778
 30
0.000000
 11
2.179979
 21
0.863365
 31
0.000000
  0
LINE
  8
daiko
 10
2.228923
 20
0.835106
 30
0.000000
 11
2.228923
 21
0.865934
 31
0.000000
  0
LINE
  8
daiko
 10
2.264519
 20
0.855658
 30
0.000000
 11
2.228923
 21
0.835106
 31
0.000000
  0
LINE
  8
daiko
 10
2.264519
 20
0.886485
 30
0.000000
 11
2.264519
 21
0.855658
 31
0.000000
  0
LINE
  8
daiko
 10
2.313464
 20
0.940432
 30
0.000000
 11
2.286767
 21
0.925019
 31
0.000000
  0
LINE
  8
daiko
 10
2.313464
 20
0.981535
 30
0.000000
 11
2.313464
 21
0.940432
 31
0.000000
  0
LINE
  8
daiko
 10
2.286767
 20
0.966122
 30
0.000000
 11
2.313464
 21
0.981535
 31
0.000000
  0
LINE
  8
daiko
 10
2.264519
 20
1.009793
 30
0.000000
 11
2.264519
 21
0.978966
 31
0.000000
  0
LINE
  8
daiko
 10
0.500725
 20
2.306167
 30
0.000000
 11
0.500725
 21
0.774719
 31
0.000000
  0
LINE
  8
daiko
 10
6.076169
 20
2.745404
 30
0.000000
 11
6.076169
 21
2.268771
 31
0.000000
  0
LINE
  8
daiko
 10
6.004639
 20
2.833657
 30
0.000000
 11
1.827715
 21
1.653979
 31
0.000000
  0
LINE
  8
daiko
 10
6.018491
 20
2.192485
 30
0.000000
 11
1.966826
 21
1.046096
 31
0.000000
  0
LINE
  8
daiko
 10
5.570740
 20
3.056662
 30
0.000000
 11
6.033899
 21
2.818618
 31
0.000000
  0
LINE
  8
daiko
 10
1.316103
 20
1.874924
 30
0.000000
 11
1.262820
 21
1.889010
 31
0.000000
  0
LINE
  8
daiko
 10
49.795172
 20
16.333948
 30
0.000000
 11
49.811139
 21
16.305936
 31
0.000000
  0
LINE
  8
daiko
 10
45.383371
 20
14.390988
 30
0.000000
 11
49.788813
 21
15.631178
 31
0.000000
  0
LINE
  8
daiko
 10
48.750916
 20
14.627080
 30
0.000000
 11
48.544925
 21
14.568668
 31
0.000000
  0
LINE
  8
daiko
 10
49.773799
 20
13.738490
 30
0.000000
 11
49.773799
 21
14.685323
 31
0.000000
  0
LINE
  8
daiko
 10
49.816069
 20
14.697310
 30
0.000000
 11
46.733847
 21
13.822930
 31
0.000000
  0
LINE
  8
daiko
 10
48.733964
 20
16.931403
 30
0.000000
 11
48.614676
 21
17.000274
 31
0.000000
  0
LINE
  8
daiko
 10
49.934483
 20
16.238283
 30
0.000000
 11
49.815195
 21
16.307154
 31
0.000000
  0
LINE
  8
daiko
 10
49.971238
 20
16.248390
 30
0.000000
 11
49.851951
 21
16.317261
 31
0.000000
  0
LINE
  8
daiko
 10
48.770719
 20
16.941510
 30
0.000000
 11
48.651432
 21
17.010381
 31
0.000000
  0
LINE
  8
daiko
 10
49.773799
 20
15.307104
 30
0.000000
 11
49.300701
 21
15.494758
 31
0.000000
  0
LINE
  8
daiko
 10
49.617747
 20
14.472156
 30
0.000000
 11
49.617747
 21
14.441329
 31
0.000000
  0
LINE
  8
daiko
 10
49.639994
 20
14.428484
 30
0.000000
 11
49.666691
 21
14.443898
 31
0.000000
  0
LINE
  8
daiko
 10
49.666691
 20
14.443898
 30
0.000000
 11
49.666691
 21
14.402795
 31
0.000000
  0
LINE
  8
daiko
 10
49.666691
 20
14.402795
 30
0.000000
 11
49.639994
 21
14.387382
 31
0.000000
  0
LINE
  8
daiko
 10
49.617747
 20
14.348848
 30
0.000000
 11
49.617747
 21
14.318021
 31
0.000000
  0
LINE
  8
daiko
 10
49.617747
 20
14.318021
 30
0.000000
 11
49.582151
 21
14.297469
 31
0.000000
  0
LINE
  8
daiko
 10
49.582151
 20
14.297469
 30
0.000000
 11
49.582151
 21
14.328296
 31
0.000000
  0
LINE
  8
daiko
 10
49.559903
 20
14.341141
 30
0.000000
 11
49.533206
 21
14.325727
 31
0.000000
  0
LINE
  8
daiko
 10
49.533206
 20
14.325727
 30
0.000000
 11
49.533206
 21
14.366830
 31
0.000000
  0
LINE
  8
daiko
 10
49.533206
 20
14.366830
 30
0.000000
 11
49.559903
 21
14.382244
 31
0.000000
  0
LINE
  8
daiko
 10
49.582151
 20
14.420778
 30
0.000000
 11
49.582151
 21
14.451605
 31
0.000000
  0
LINE
  8
daiko
 10
49.582151
 20
14.451605
 30
0.000000
 11
49.617747
 21
14.472156
 31
0.000000
  0
LINE
  8
daiko
 10
49.816069
 20
15.233890
 30
0.000000
 11
49.816069
 21
14.697310
 31
0.000000
  0
LINE
  8
daiko
 10
49.770216
 20
15.308526
 30
0.000000
 11
46.580628
 21
14.407539
 31
0.000000
  0
LINE
  8
daiko
 10
49.418342
 20
16.566049
 30
0.000000
 11
49.717041
 21
16.393595
 31
0.000000
  0
LINE
  8
daiko
 10
49.724361
 20
16.387191
 30
0.000000
 11
49.797025
 21
16.301706
 31
0.000000
  0
LINE
  8
daiko
 10
1.511025
 20
2.546139
 30
0.000000
 11
49.983976
 21
16.238635
 31
0.000000
  0
LINE
  8
daiko
 10
1.378483
 20
2.622662
 30
0.000000
 11
49.851951
 21
16.317261
 31
0.000000
  0
LINE
  8
daiko
 10
49.720227
 20
16.391326
 30
0.000000
 11
1.385869
 21
2.734894
 31
0.000000
  0
LINE
  8
daiko
 10
1.219260
 20
2.947839
 30
0.000000
 11
49.418342
 21
16.566049
 31
0.000000
  0
LINE
  8
daiko
 10
49.080611
 20
16.785443
 30
0.000000
 11
0.948255
 21
3.186085
 31
0.000000
  0
LINE
  8
daiko
 10
48.800518
 20
16.922750
 30
0.000000
 11
48.981927
 21
16.818014
 31
0.000000
  0
LINE
  8
daiko
 10
0.493276
 20
3.374246
 30
0.000000
 11
48.800518
 21
16.922750
 31
0.000000
  0
LINE
  8
daiko
 10
0.177115
 20
3.316272
 30
0.000000
 11
48.770719
 21
16.941510
 31
0.000000
  0
LINE
  8
daiko
 10
0.017322
 20
3.397765
 30
0.000000
 11
48.627697
 21
17.015087
 31
0.000000
  0
LINE
  8
daiko
 10
1.801984
 20
0.002758
 30
0.000000
 11
49.768703
 21
13.723824
 31
0.000000
  0
LINE
  8
daiko
 10
45.638458
 20
13.512184
 30
0.000000
 11
7.010767
 21
2.474134
 31
0.000000
  0
LINE
  8
daiko
 10
45.646105
 20
14.143558
 30
0.000000
 11
6.940825
 21
3.098034
 31
0.000000
  0
LINE
  8
daiko
 10
6.146910
 20
3.219159
 30
0.000000
 11
45.383371
 21
14.390988
 31
0.000000
  0
TEXT
  8
daiko
 10
0.000000
 20
-10.000000
 30
0.000000
 40
4.000000
  1
LZY-92862NT
  7
BIGFONT
  0
TEXT
  8
daiko
 10
0.000000
 20
-14.000000
 30
0.000000
 40
3.000000
  1
LED15.5W       4000K
  7
BIGFONT
  0
TEXT
  8
daiko
 10
0.000000
 20
-18.000000
 30
0.000000
 40
3.000000
  1
演色性 Ra83    ｼﾙﾊﾞｰ
  7
BIGFONT
  0
ENDSEC
  0
EOF
