  0
SECTION
  2
HEADER
  9
$EXTMIN
 10
0.000000
 20
-19.000000
 30
0.000000
  9
$EXTMAX
 10
49.840718
 20
19.452778
 30
0.000000
  0
ENDSEC
  0
SECTION
  2
TABLES
  0
TABLE
  2
LTYPE
 70
     8
  0
LTYPE
  2
CENTER_DASH_DASH
 70
     0
  3
Center_Dash_Dash
 72
    65
 73
     6
 40
22.000000
 49
12.000000
 49
-3.000000
 49
0.500000
 49
-3.000000
 49
0.500000
 49
-3.000000
  0
LTYPE
  2
CONTINUOUS
 70
     0
  3
Solid line
 72
    65
 73
     0
 40
0.000000
  0
LTYPE
  2
DASHED
 70
     0
  3
Dashed
 72
    65
 73
     2
 40
15.000000
 49
12.000000
 49
-3.000000
  0
LTYPE
  2
DASH_CENTER
 70
     0
  3
Dash_Center
 72
    65
 73
     4
 40
36.000000
 49
24.000000
 49
-3.000000
 49
6.000000
 49
-3.000000
  0
LTYPE
  2
DOTTED
 70
     0
  3
Dotted
 72
    65
 73
     2
 40
3.500000
 49
0.500000
 49
-3.000000
  0
LTYPE
  2
DOT_CENTER
 70
     0
  3
Dot_Center
 72
    65
 73
     4
 40
2.000000
 49
1.250000
 49
-0.250000
 49
0.250000
 49
-0.250000
  0
LTYPE
  2
LONG_DASHED
 70
     0
  3
Long_Dashed
 72
    65
 73
     2
 40
2.000000
 49
1.500000
 49
-0.500000
  0
LTYPE
  2
PHANTOM
 70
     0
  3
Phantom
 72
    65
 73
     6
 40
2.500000
 49
1.250000
 49
-0.250000
 49
0.250000
 49
-0.250000
 49
0.250000
 49
-0.250000
  0
ENDTAB
  0
TABLE
  2
STYLE
 70
     3
  0
STYLE
  2
BIGFONT
 70
     0
 40
1.000000
 41
1.000000
 50
0.000000
 71
     0
 42
0.000000
  3
txt
  4
bigfont
  0
STYLE
  2
CONVERTER_1
 70
     0
 40
0.000000
 41
0.900000
 50
0.000000
 71
     0
 42
0.000000
  3
txt.shx
  4

  0
STYLE
  2
STANDARD
 70
     0
 40
0.000000
 41
1.000000
 50
0.000000
 71
     0
 42
0.000000
  3
txt
  4

  0
ENDTAB
  0
TABLE
  2
LAYER
 70
     1
  0
LAYER
  2
daiko
 70
     0
 62
     7
  6
CONTINUOUS
  0
ENDTAB
  0
ENDSEC
  0
SECTION
  2
ENTITIES
  0
ARC
  8
daiko
 10
1.435143
 20
2.706234
 30
0.000000
 40
0.093845
 50
188.896113
 51
267.480113
  0
ARC
  8
daiko
 10
2.907945
 20
2.758601
 30
0.000000
 40
0.093845
 50
8.896113
 51
105.963384
  0
ARC
  8
daiko
 10
2.257183
 20
2.670057
 30
0.000000
 40
0.093845
 50
188.896113
 51
285.963384
  0
ARC
  8
daiko
 10
3.717790
 20
2.227509
 30
0.000000
 40
0.228044
 50
180.000000
 51
285.815809
  0
ARC
  8
daiko
 10
41.414736
 20
12.881186
 30
0.000000
 40
0.152029
 50
285.815809
 51
0.000000
  0
ARC
  8
daiko
 10
41.817070
 20
13.912559
 30
0.000000
 40
0.228044
 50
239.574266
 51
285.773781
  0
ARC
  8
daiko
 10
41.813510
 20
13.918222
 30
0.000000
 40
0.152029
 50
240.000000
 51
285.773781
  0
ARC
  8
daiko
 10
3.803106
 20
2.251649
 30
0.000000
 40
0.228044
 50
180.000000
 51
285.815809
  0
ARC
  8
daiko
 10
11.498640
 20
4.350225
 30
0.000000
 40
0.152029
 50
285.815809
 51
0.000000
  0
ARC
  8
daiko
 10
11.900975
 20
5.381599
 30
0.000000
 40
0.228044
 50
239.574266
 51
285.773781
  0
ARC
  8
daiko
 10
11.897414
 20
5.387262
 30
0.000000
 40
0.152029
 50
240.000000
 51
285.773781
  0
ARC
  8
daiko
 10
42.894791
 20
14.245354
 30
0.000000
 40
0.172919
 50
286.449345
 51
332.500682
  0
ARC
  8
daiko
 10
42.925002
 20
14.230943
 30
0.000000
 40
0.233258
 50
285.765061
 51
335.487720
  0
ARC
  8
daiko
 10
43.512463
 20
13.588212
 30
0.000000
 40
0.260913
 50
186.805033
 51
279.718877
  0
ARC
  8
daiko
 10
43.511258
 20
13.490553
 30
0.000000
 40
0.165804
 50
203.142771
 51
285.837839
  0
ARC
  8
daiko
 10
1.010725
 20
3.572098
 30
0.000000
 40
0.225516
 50
177.158545
 51
243.164144
  0
ARC
  8
daiko
 10
1.133726
 20
3.538560
 30
0.000000
 40
0.266185
 50
177.592959
 51
212.376470
  0
ARC
  8
daiko
 10
14.606246
 20
5.518312
 30
0.000000
 40
0.205306
 50
194.830798
 51
16.832502
  0
ARC
  8
daiko
 10
7.681045
 20
3.554545
 30
0.000000
 40
0.205306
 50
194.830798
 51
16.832502
  0
ARC
  8
daiko
 10
40.302402
 20
12.849733
 30
0.000000
 40
0.205306
 50
194.830798
 51
16.832502
  0
ARC
  8
daiko
 10
0.896925
 20
5.230757
 30
0.000000
 40
1.240110
 50
54.514418
 51
110.381489
  0
ARC
  8
daiko
 10
-0.064592
 20
3.443476
 30
0.000000
 40
3.263529
 50
29.757743
 51
58.988575
  0
ARC
  8
daiko
 10
0.771500
 20
5.196269
 30
0.000000
 40
1.240110
 50
54.514418
 51
110.381489
  0
ARC
  8
daiko
 10
-0.190018
 20
3.408988
 30
0.000000
 40
3.263529
 50
29.757743
 51
58.988575
  0
ARC
  8
daiko
 10
4.078987
 20
1.900208
 30
0.000000
 40
0.369559
 50
263.150027
 51
28.032903
  0
ARC
  8
daiko
 10
4.180594
 20
1.842266
 30
0.000000
 40
0.093337
 50
302.804007
 51
357.195993
  0
ARC
  8
daiko
 10
4.367790
 20
1.872394
 30
0.000000
 40
0.026146
 50
169.617127
 51
310.382873
  0
ARC
  8
daiko
 10
4.436195
 20
1.694695
 30
0.000000
 40
0.094260
 50
123.091934
 51
176.908066
  0
ARC
  8
daiko
 10
4.248311
 20
1.665448
 30
0.000000
 40
0.026009
 50
348.746457
 51
131.253543
  0
ARC
  8
daiko
 10
4.147189
 20
1.672264
 30
0.000000
 40
0.178665
 50
176.370537
 51
231.065346
  0
ARC
  8
daiko
 10
4.484035
 20
1.657450
 30
0.000000
 40
0.515815
 50
123.669105
 51
177.096997
  0
ARC
  8
daiko
 10
4.311447
 20
1.921011
 30
0.000000
 40
0.200800
 50
89.023963
 51
124.376684
  0
ARC
  8
daiko
 10
4.311506
 20
2.006320
 30
0.000000
 40
0.115510
 50
35.802843
 51
88.332173
  0
ARC
  8
daiko
 10
3.397683
 20
3.029758
 30
0.000000
 40
0.177422
 50
1.257920
 51
58.742080
  0
ARC
  8
daiko
 10
2.644869
 20
3.417943
 30
0.000000
 40
0.132472
 50
57.004563
 51
98.908730
  0
ARC
  8
daiko
 10
2.576542
 20
3.380971
 30
0.000000
 40
0.283791
 50
59.804328
 51
68.618306
  0
ARC
  8
daiko
 10
2.564469
 20
3.728820
 30
0.000000
 40
0.139893
 50
252.989403
 51
307.250662
  0
ARC
  8
daiko
 10
2.455819
 20
3.788879
 30
0.000000
 40
0.170771
 50
235.044373
 51
302.264207
  0
ARC
  8
daiko
 10
2.258243
 20
3.708526
 30
0.000000
 40
0.123873
 50
235.473658
 51
280.439636
  0
ARC
  8
daiko
 10
2.289916
 20
3.656888
 30
0.000000
 40
0.180664
 50
234.796620
 51
281.116673
  0
ARC
  8
daiko
 10
2.364694
 20
1.388729
 30
0.000000
 40
0.843417
 50
328.063570
 51
11.727599
  0
ARC
  8
daiko
 10
2.864887
 20
1.089051
 30
0.000000
 40
0.260615
 50
265.139125
 51
325.804374
  0
ARC
  8
daiko
 10
2.191545
 20
1.384145
 30
0.000000
 40
0.919698
 50
334.611707
 51
10.858995
  0
ARC
  8
daiko
 10
2.771174
 20
1.090323
 30
0.000000
 40
0.270602
 50
264.279618
 51
338.198759
  0
ARC
  8
daiko
 10
2.844578
 20
1.256168
 30
0.000000
 40
0.446528
 50
215.358251
 51
257.009243
  0
ARC
  8
daiko
 10
3.375776
 20
1.628413
 30
0.000000
 40
1.095166
 50
188.668319
 51
215.158786
  0
ARC
  8
daiko
 10
3.163741
 20
1.580890
 30
0.000000
 40
0.821829
 50
162.418797
 51
193.522177
  0
ARC
  8
daiko
 10
2.953367
 20
1.473385
 30
0.000000
 40
0.594729
 50
188.183591
 51
234.663281
  0
ARC
  8
daiko
 10
2.724012
 20
1.146875
 30
0.000000
 40
0.195327
 50
235.741413
 51
309.209560
  0
ARC
  8
daiko
 10
2.427179
 20
1.367234
 30
0.000000
 40
0.561095
 50
318.511763
 51
1.639102
  0
ARC
  8
daiko
 10
2.113009
 20
1.392251
 30
0.000000
 40
0.875081
 50
359.412857
 51
29.811031
  0
ARC
  8
daiko
 10
2.543069
 20
1.673028
 30
0.000000
 40
0.363570
 50
25.106090
 51
74.344430
  0
ARC
  8
daiko
 10
2.603744
 20
1.837278
 30
0.000000
 40
0.189565
 50
78.610229
 51
128.281670
  0
ARC
  8
daiko
 10
2.715111
 20
1.717278
 30
0.000000
 40
0.353000
 50
130.404678
 51
161.526952
  0
ARC
  8
daiko
 10
2.799351
 20
4.727231
 30
0.000000
 40
0.183207
 50
0.914586
 51
57.682646
  0
ARC
  8
daiko
 10
2.925176
 20
4.761943
 30
0.000000
 40
0.182805
 50
0.846391
 51
57.750842
  0
ARC
  8
daiko
 10
1.509471
 20
4.734239
 30
0.000000
 40
1.598780
 50
317.066394
 51
1.089679
  0
ARC
  8
daiko
 10
1.478262
 20
4.703434
 30
0.000000
 40
1.504510
 50
315.262841
 51
1.017693
  0
ARC
  8
daiko
 10
2.664815
 20
4.381226
 30
0.000000
 40
0.170927
 50
306.922806
 51
4.900762
  0
ARC
  8
daiko
 10
2.701541
 20
4.371330
 30
0.000000
 40
0.142884
 50
250.276592
 51
297.490936
  0
ARC
  8
daiko
 10
2.821565
 20
4.641180
 30
0.000000
 40
0.437957
 50
209.093487
 51
247.408533
  0
ARC
  8
daiko
 10
2.798009
 20
4.668087
 30
0.000000
 40
0.431874
 50
177.539194
 51
213.737340
  0
ARC
  8
daiko
 10
2.506434
 20
4.697639
 30
0.000000
 40
0.140333
 50
114.717076
 51
184.499671
  0
ARC
  8
daiko
 10
2.493129
 20
4.603223
 30
0.000000
 40
0.226484
 50
49.152417
 51
101.556962
  0
ARC
  8
daiko
 10
2.306214
 20
4.361746
 30
0.000000
 40
0.531659
 50
7.857358
 51
50.935802
  0
ARC
  8
daiko
 10
2.493946
 20
4.395435
 30
0.000000
 40
0.341171
 50
0.066163
 51
6.562831
  0
ARC
  8
daiko
 10
2.660170
 20
4.427929
 30
0.000000
 40
0.026033
 50
48.906717
 51
191.093283
  0
ARC
  8
daiko
 10
2.472510
 20
4.457394
 30
0.000000
 40
0.093990
 50
3.008281
 51
56.991719
  0
ARC
  8
daiko
 10
2.727759
 20
4.604762
 30
0.000000
 40
0.093245
 50
182.775041
 51
237.224959
  0
ARC
  8
daiko
 10
2.540547
 20
4.635121
 30
0.000000
 40
0.026217
 50
230.045395
 51
9.954605
  0
ARC
  8
daiko
 10
0.808804
 20
5.444247
 30
0.000000
 40
1.003399
 50
7.543672
 51
38.565466
  0
ARC
  8
daiko
 10
1.330757
 20
5.915011
 30
0.000000
 40
0.304812
 50
30.512807
 51
104.617187
  0
ARC
  8
daiko
 10
1.132361
 20
5.730520
 30
0.000000
 40
0.494588
 50
28.326140
 51
75.782343
  0
ARC
  8
daiko
 10
0.592372
 20
5.395709
 30
0.000000
 40
1.129440
 50
8.735019
 51
30.279693
  0
ARC
  8
daiko
 10
1.231389
 20
5.957297
 30
0.000000
 40
0.253656
 50
84.923335
 51
134.640165
  0
ARC
  8
daiko
 10
1.653936
 20
5.657350
 30
0.000000
 40
0.769253
 50
141.351325
 51
193.852213
  0
ARC
  8
daiko
 10
1.310990
 20
5.135117
 30
0.000000
 40
0.093712
 50
182.921880
 51
237.078120
  0
ARC
  8
daiko
 10
1.056965
 20
4.988455
 30
0.000000
 40
0.092267
 50
2.462164
 51
57.537836
  0
ARC
  8
daiko
 10
1.122430
 20
5.166763
 30
0.000000
 40
0.026883
 50
233.628815
 51
6.371185
  0
ARC
  8
daiko
 10
1.242905
 20
4.958094
 30
0.000000
 40
0.026006
 50
48.732546
 51
191.267454
  0
ARC
  8
daiko
 10
1.153999
 20
5.151241
 30
0.000000
 40
0.453980
 50
19.685134
 51
73.384022
  0
ARC
  8
daiko
 10
0.836129
 20
4.965437
 30
0.000000
 40
0.818680
 50
337.945243
 51
24.440529
  0
ARC
  8
daiko
 10
1.363636
 20
4.758967
 30
0.000000
 40
0.252334
 50
284.485453
 51
336.420815
  0
ARC
  8
daiko
 10
1.397958
 20
4.744922
 30
0.000000
 40
0.232062
 50
231.034657
 51
277.127854
  0
ARC
  8
daiko
 10
1.708238
 20
5.077671
 30
0.000000
 40
0.686648
 50
193.191082
 51
228.363350
  0
ARC
  8
daiko
 10
1.766413
 20
5.143181
 30
0.000000
 40
0.759918
 50
161.132460
 51
197.001961
  0
ARC
  8
daiko
 10
1.277546
 20
5.353405
 30
0.000000
 40
0.232944
 50
88.457453
 51
171.229097
  0
ARC
  8
daiko
 10
0.171079
 20
6.475781
 30
0.000000
 40
0.075524
 50
58.185741
 51
93.879468
  0
ARC
  8
daiko
 10
0.049246
 20
6.454886
 30
0.000000
 40
0.062215
 50
54.395484
 51
104.933788
  0
ARC
  8
daiko
 10
0.046839
 20
6.473866
 30
0.000000
 40
0.043331
 50
108.327643
 51
156.428876
  0
ARC
  8
daiko
 10
0.080715
 20
6.458040
 30
0.000000
 40
0.080715
 50
155.748511
 51
184.297608
  0
ARC
  8
daiko
 10
3.736931
 20
6.625901
 30
0.000000
 40
3.740748
 50
182.664662
 51
208.669824
  0
ARC
  8
daiko
 10
0.321441
 20
5.917334
 30
0.000000
 40
0.026868
 50
233.555853
 51
6.444147
  0
ARC
  8
daiko
 10
0.509758
 20
5.885591
 30
0.000000
 40
0.093482
 50
182.849587
 51
237.150413
  0
ARC
  8
daiko
 10
0.254322
 20
5.738115
 30
0.000000
 40
0.093945
 50
2.994479
 51
57.005521
  0
ARC
  8
daiko
 10
0.442223
 20
5.708133
 30
0.000000
 40
0.026223
 50
50.081072
 51
189.918928
  0
ARC
  8
daiko
 10
0.298813
 20
5.970187
 30
0.000000
 40
0.152869
 50
120.074715
 51
188.557134
  0
ARC
  8
daiko
 10
0.282536
 20
5.934782
 30
0.000000
 40
0.178216
 50
57.828761
 51
109.786885
  0
ARC
  8
daiko
 10
0.097830
 20
5.645836
 30
0.000000
 40
0.521150
 50
6.369917
 51
57.554236
  0
ARC
  8
daiko
 10
0.415427
 20
5.671646
 30
0.000000
 40
0.202877
 50
321.512745
 51
9.078292
  0
ARC
  8
daiko
 10
0.482655
 20
5.641577
 30
0.000000
 40
0.132809
 50
249.363613
 51
313.591671
  0
ARC
  8
daiko
 10
0.647016
 20
5.970398
 30
0.000000
 40
0.499898
 50
182.632098
 51
245.012458
  0
ARC
  8
daiko
 10
12.624552
 20
4.639259
 30
0.000000
 40
0.359478
 50
46.581357
 51
136.148804
  0
ARC
  8
daiko
 10
12.716521
 20
4.522676
 30
0.000000
 40
0.506976
 50
133.847448
 51
194.236041
  0
ARC
  8
daiko
 10
12.553593
 20
4.466562
 30
0.000000
 40
0.335616
 50
191.620679
 51
262.483538
  0
ARC
  8
daiko
 10
12.527578
 20
4.562600
 30
0.000000
 40
0.429144
 50
267.611114
 51
326.274892
  0
ARC
  8
daiko
 10
12.424073
 20
4.633527
 30
0.000000
 40
0.605471
 50
285.489719
 51
330.831830
  0
ARC
  8
daiko
 10
12.470816
 20
4.479474
 30
0.000000
 40
0.444637
 50
238.191734
 51
285.767795
  0
ARC
  8
daiko
 10
12.545531
 20
4.546993
 30
0.000000
 40
0.542115
 50
184.795470
 51
235.240972
  0
ARC
  8
daiko
 10
12.694121
 20
4.572183
 30
0.000000
 40
0.692406
 50
125.275353
 51
185.844794
  0
ARC
  8
daiko
 10
12.576581
 20
4.777206
 30
0.000000
 40
0.457699
 50
32.046507
 51
128.086174
  0
ARC
  8
daiko
 10
13.267674
 20
5.765169
 30
0.000000
 40
0.175186
 50
2.441483
 51
57.558517
  0
ARC
  8
daiko
 10
12.927910
 20
7.737811
 30
0.000000
 40
2.320709
 50
226.774838
 51
262.629450
  0
ARC
  8
daiko
 10
12.670603
 20
7.250530
 30
0.000000
 40
1.394292
 50
230.637579
 51
266.601076
  0
ARC
  8
daiko
 10
11.459417
 20
5.249317
 30
0.000000
 40
0.191826
 50
4.431259
 51
73.619227
  0
ARC
  8
daiko
 10
43.183769
 20
14.295581
 30
0.000000
 40
0.175212
 50
2.620811
 51
63.216804
  0
ARC
  8
daiko
 10
41.390350
 20
13.786835
 30
0.000000
 40
0.176609
 50
2.682088
 51
57.317912
  0
ARC
  8
daiko
 10
12.687263
 20
5.013354
 30
0.000000
 40
0.851151
 50
54.970317
 51
96.701348
  0
ARC
  8
daiko
 10
12.519176
 20
5.035057
 30
0.000000
 40
0.941898
 50
11.335293
 51
45.800860
  0
ARC
  8
daiko
 10
12.839074
 20
4.978597
 30
0.000000
 40
0.650178
 50
280.070612
 51
21.812803
  0
ARC
  8
daiko
 10
12.682146
 20
5.506816
 30
0.000000
 40
1.199311
 50
247.599470
 51
283.040865
  0
ARC
  8
daiko
 10
12.617598
 20
5.257878
 30
0.000000
 40
0.438574
 50
235.937883
 51
305.395872
  0
ARC
  8
daiko
 10
12.708054
 20
5.123231
 30
0.000000
 40
0.276452
 50
306.277429
 51
74.888026
  0
ARC
  8
daiko
 10
12.450820
 20
4.586980
 30
0.000000
 40
0.868033
 50
67.705228
 51
78.074122
  0
ARC
  8
daiko
 10
0.897858
 20
5.028556
 30
0.000000
 40
0.485010
 50
204.006564
 51
238.917206
  0
ARC
  8
daiko
 10
3.437808
 20
0.031209
 30
0.000000
 40
0.031209
 50
228.738333
 51
11.261667
  0
ARC
  8
daiko
 10
1.021747
 20
1.521062
 30
0.000000
 40
0.112989
 50
183.060217
 51
236.939783
  0
ARC
  8
daiko
 10
2.644596
 20
1.574107
 30
0.000000
 40
0.092042
 50
182.388974
 51
237.611026
  0
ARC
  8
daiko
 10
2.578199
 20
1.397921
 30
0.000000
 40
0.026045
 50
48.981865
 51
191.018135
  0
ARC
  8
daiko
 10
2.392438
 20
1.428617
 30
0.000000
 40
0.091943
 50
0.222105
 51
57.586247
  0
ARC
  8
daiko
 10
2.458389
 20
1.605439
 30
0.000000
 40
0.026335
 50
230.738874
 51
9.261126
  0
ARC
  8
daiko
 10
47.227603
 20
14.813500
 30
0.000000
 40
0.205306
 50
194.830798
 51
16.832502
  0
ARC
  8
daiko
 10
47.780310
 20
18.245120
 30
0.000000
 40
1.116099
 50
54.514418
 51
110.381489
  0
ARC
  8
daiko
 10
46.914944
 20
16.636567
 30
0.000000
 40
2.937176
 50
29.757743
 51
58.988575
  0
ARC
  8
daiko
 10
46.985420
 20
16.655945
 30
0.000000
 40
2.937176
 50
29.757743
 51
58.988575
  0
ARC
  8
daiko
 10
47.850786
 20
18.264498
 30
0.000000
 40
1.116099
 50
54.514418
 51
110.381489
  0
ARC
  8
daiko
 10
48.823119
 20
14.539887
 30
0.000000
 40
0.369559
 50
263.150027
 51
28.032903
  0
ARC
  8
daiko
 10
49.300224
 20
16.032894
 30
0.000000
 40
0.166289
 50
1.232196
 51
61.897698
  0
ARC
  8
daiko
 10
48.197844
 20
17.855692
 30
0.000000
 40
1.572686
 50
317.497838
 51
358.904250
  0
ARC
  8
daiko
 10
48.313872
 20
17.856852
 30
0.000000
 40
1.526892
 50
316.846998
 51
359.555090
  0
ARC
  8
daiko
 10
49.112183
 20
14.512524
 30
0.000000
 40
0.026326
 50
170.685510
 51
309.314490
  0
ARC
  8
daiko
 10
48.925576
 20
14.481454
 30
0.000000
 40
0.092465
 50
302.526052
 51
357.473948
  0
ARC
  8
daiko
 10
48.992269
 20
14.304827
 30
0.000000
 40
0.026122
 50
349.467804
 51
130.532196
  0
ARC
  8
daiko
 10
49.178726
 20
14.335298
 30
0.000000
 40
0.092616
 50
122.574525
 51
177.425475
  0
ARC
  8
daiko
 10
48.870692
 20
14.298671
 30
0.000000
 40
0.155569
 50
186.463518
 51
233.904449
  0
ARC
  8
daiko
 10
49.211448
 20
14.307585
 30
0.000000
 40
0.496040
 50
142.508142
 51
183.053911
  0
ARC
  8
daiko
 10
49.132378
 20
14.398594
 30
0.000000
 40
0.378677
 50
111.531055
 51
146.154713
  0
ARC
  8
daiko
 10
49.049283
 20
14.639857
 30
0.000000
 40
0.124264
 50
36.385584
 51
116.724157
  0
ARC
  8
daiko
 10
49.603567
 20
17.821970
 30
0.000000
 40
0.166714
 50
1.253459
 51
57.343774
  0
ARC
  8
daiko
 10
49.676230
 20
17.842576
 30
0.000000
 40
0.164505
 50
0.842809
 51
57.754423
  0
ARC
  8
daiko
 10
49.269206
 20
19.168441
 30
0.000000
 40
0.807366
 50
218.263934
 51
238.437039
  0
ARC
  8
daiko
 10
48.206536
 20
18.404075
 30
0.000000
 40
0.503711
 50
31.658715
 51
88.341285
  0
ARC
  8
daiko
 10
48.203118
 20
19.266001
 30
0.000000
 40
0.358878
 50
237.407342
 51
272.874753
  0
ARC
  8
daiko
 10
47.198987
 20
19.388713
 30
0.000000
 40
0.064065
 50
57.555729
 51
100.014261
  0
ARC
  8
daiko
 10
47.126719
 20
19.363740
 30
0.000000
 40
0.069780
 50
58.244755
 51
96.348246
  0
ARC
  8
daiko
 10
49.349575
 20
13.165835
 30
0.000000
 40
0.036001
 50
316.416891
 51
5.260403
  0
LINE
  8
daiko
 10
2.080036
 20
3.809385
 30
0.000000
 11
2.357977
 21
3.648916
 31
0.000000
  0
LINE
  8
daiko
 10
2.188034
 20
3.606472
 30
0.000000
 11
2.104223
 21
3.654860
 31
0.000000
  0
LINE
  8
daiko
 10
2.118008
 20
3.548386
 30
0.000000
 11
2.185767
 21
3.509265
 31
0.000000
  0
LINE
  8
daiko
 10
2.324750
 20
3.479614
 30
0.000000
 11
2.624354
 21
3.548817
 31
0.000000
  0
LINE
  8
daiko
 10
2.427144
 20
3.620532
 30
0.000000
 11
2.280689
 21
3.586704
 31
0.000000
  0
LINE
  8
daiko
 10
2.253057
 20
2.576303
 30
0.000000
 11
1.431017
 21
2.612480
 31
0.000000
  0
LINE
  8
daiko
 10
2.223065
 20
2.895613
 30
0.000000
 11
2.913823
 21
2.852262
 31
0.000000
  0
LINE
  8
daiko
 10
2.258320
 20
2.670382
 30
0.000000
 11
2.882135
 21
2.848827
 31
0.000000
  0
LINE
  8
daiko
 10
2.282993
 20
2.579831
 30
0.000000
 11
2.906808
 21
2.758276
 31
0.000000
  0
LINE
  8
daiko
 10
2.117983
 20
2.582247
 30
0.000000
 11
2.293119
 21
1.463356
 31
0.000000
  0
LINE
  8
daiko
 10
3.094775
 20
1.557410
 30
0.000000
 11
2.906808
 21
2.758276
 31
0.000000
  0
LINE
  8
daiko
 10
3.189582
 20
1.566154
 30
0.000000
 11
3.000661
 21
2.773113
 31
0.000000
  0
LINE
  8
daiko
 10
43.253388
 20
13.557296
 30
0.000000
 11
43.253388
 21
14.335345
 31
0.000000
  0
LINE
  8
daiko
 10
42.943756
 20
14.079512
 30
0.000000
 11
41.854837
 21
13.771918
 31
0.000000
  0
LINE
  8
daiko
 10
42.988377
 20
14.006459
 30
0.000000
 11
41.879062
 21
13.693102
 31
0.000000
  0
LINE
  8
daiko
 10
43.253388
 20
14.335345
 30
0.000000
 11
43.224689
 21
14.471245
 31
0.000000
  0
LINE
  8
daiko
 10
41.701584
 20
13.715920
 30
0.000000
 11
41.566765
 21
13.795099
 31
0.000000
  0
LINE
  8
daiko
 10
43.253388
 20
14.335345
 30
0.000000
 11
43.137238
 21
14.134167
 31
0.000000
  0
LINE
  8
daiko
 10
41.737495
 20
13.786561
 30
0.000000
 11
41.429611
 21
13.964317
 31
0.000000
  0
LINE
  8
daiko
 10
43.224689
 20
14.471245
 30
0.000000
 11
43.048173
 21
14.165511
 31
0.000000
  0
LINE
  8
daiko
 10
43.358797
 20
14.303593
 30
0.000000
 11
43.358797
 21
13.425388
 31
0.000000
  0
LINE
  8
daiko
 10
41.566765
 20
13.795099
 30
0.000000
 11
41.566765
 21
12.881186
 31
0.000000
  0
LINE
  8
daiko
 10
42.489802
 20
14.848932
 30
0.000000
 11
43.277747
 21
14.443977
 31
0.000000
  0
LINE
  8
daiko
 10
40.692740
 20
14.343036
 30
0.000000
 11
41.485715
 21
13.935483
 31
0.000000
  0
LINE
  8
daiko
 10
0.785487
 20
3.583277
 30
0.000000
 11
0.785487
 21
4.528758
 31
0.000000
  0
LINE
  8
daiko
 10
2.719276
 20
3.626256
 30
0.000000
 11
11.786310
 21
6.172533
 31
0.000000
  0
LINE
  8
daiko
 10
2.719276
 20
3.626256
 30
0.000000
 11
3.489745
 21
3.181425
 31
0.000000
  0
LINE
  8
daiko
 10
3.489745
 20
2.227509
 30
0.000000
 11
3.489745
 21
3.082910
 31
0.000000
  0
LINE
  8
daiko
 10
3.468416
 20
3.095224
 30
0.000000
 11
3.468416
 21
0.037303
 31
0.000000
  0
LINE
  8
daiko
 10
2.258320
 20
2.670382
 30
0.000000
 11
1.803518
 21
5.575975
 31
0.000000
  0
LINE
  8
daiko
 10
0.867775
 20
4.478416
 30
0.000000
 11
0.867775
 21
3.527381
 31
0.000000
  0
LINE
  8
daiko
 10
2.164467
 20
2.655545
 30
0.000000
 11
1.708711
 21
5.567231
 31
0.000000
  0
LINE
  8
daiko
 10
0.907055
 20
5.473177
 30
0.000000
 11
1.342426
 21
2.691722
 31
0.000000
  0
LINE
  8
daiko
 10
14.802755
 20
5.577763
 30
0.000000
 11
14.407780
 21
5.465760
 31
0.000000
  0
LINE
  8
daiko
 10
7.877554
 20
3.613996
 30
0.000000
 11
7.482579
 21
3.501994
 31
0.000000
  0
LINE
  8
daiko
 10
40.498911
 20
12.909184
 30
0.000000
 11
40.103935
 21
12.797182
 31
0.000000
  0
LINE
  8
daiko
 10
13.337292
 20
5.502528
 30
0.000000
 11
13.337292
 21
5.804384
 31
0.000000
  0
LINE
  8
daiko
 10
12.587939
 20
5.858690
 30
0.000000
 11
11.959542
 21
6.221496
 31
0.000000
  0
LINE
  8
daiko
 10
12.630196
 20
5.436277
 30
0.000000
 11
11.938741
 21
5.240957
 31
0.000000
  0
LINE
  8
daiko
 10
12.776155
 20
5.391849
 30
0.000000
 11
11.962966
 21
5.162142
 31
0.000000
  0
LINE
  8
daiko
 10
13.337292
 20
5.804384
 30
0.000000
 11
13.308593
 21
5.940285
 31
0.000000
  0
LINE
  8
daiko
 10
11.785488
 20
5.184959
 30
0.000000
 11
11.650669
 21
5.264138
 31
0.000000
  0
LINE
  8
daiko
 10
13.337292
 20
5.804384
 30
0.000000
 11
13.243052
 21
5.641156
 31
0.000000
  0
LINE
  8
daiko
 10
11.821399
 20
5.255600
 30
0.000000
 11
11.513516
 21
5.433357
 31
0.000000
  0
LINE
  8
daiko
 10
13.308593
 20
5.940285
 30
0.000000
 11
13.175825
 21
5.710323
 31
0.000000
  0
LINE
  8
daiko
 10
12.473789
 20
6.369324
 30
0.000000
 11
13.361651
 21
5.913016
 31
0.000000
  0
LINE
  8
daiko
 10
13.442701
 20
5.772632
 30
0.000000
 11
13.442701
 21
5.220187
 31
0.000000
  0
LINE
  8
daiko
 10
3.489745
 20
3.082910
 30
0.000000
 11
3.468416
 21
3.095224
 31
0.000000
  0
LINE
  8
daiko
 10
3.575062
 20
3.033652
 30
0.000000
 11
3.575062
 21
2.251649
 31
0.000000
  0
LINE
  8
daiko
 10
0.908919
 20
1.515030
 30
0.000000
 11
0.908919
 21
4.453245
 31
0.000000
  0
LINE
  8
daiko
 10
3.417226
 20
0.007749
 30
0.000000
 11
0.960109
 21
1.426366
 31
0.000000
  0
LINE
  8
daiko
 10
0.960109
 20
1.485475
 30
0.000000
 11
3.417226
 21
0.066858
 31
0.000000
  0
LINE
  8
daiko
 10
3.417226
 20
0.066858
 30
0.000000
 11
3.417226
 21
3.124779
 31
0.000000
  0
LINE
  8
daiko
 10
3.468416
 20
3.095224
 30
0.000000
 11
3.417226
 21
3.124779
 31
0.000000
  0
LINE
  8
daiko
 10
3.391631
 20
0.101338
 30
0.000000
 11
0.985704
 21
1.490401
 31
0.000000
  0
LINE
  8
daiko
 10
0.985704
 20
1.490401
 30
0.000000
 11
0.985704
 21
4.406270
 31
0.000000
  0
LINE
  8
daiko
 10
0.647459
 20
4.613200
 30
0.000000
 11
1.083411
 21
4.346495
 31
0.000000
  0
LINE
  8
daiko
 10
0.465033
 20
6.393230
 30
0.000000
 11
0.210893
 21
6.539958
 31
0.000000
  0
LINE
  8
daiko
 10
3.022721
 20
4.916548
 30
0.000000
 11
2.768580
 21
5.063276
 31
0.000000
  0
LINE
  8
daiko
 10
2.552634
 20
1.629380
 30
0.000000
 11
2.552634
 21
1.570271
 31
0.000000
  0
LINE
  8
daiko
 10
2.595292
 20
1.496384
 30
0.000000
 11
2.646482
 21
1.466830
 31
0.000000
  0
LINE
  8
daiko
 10
2.646482
 20
1.466830
 30
0.000000
 11
2.646482
 21
1.388018
 31
0.000000
  0
LINE
  8
daiko
 10
2.646482
 20
1.388018
 30
0.000000
 11
2.595292
 21
1.417572
 31
0.000000
  0
LINE
  8
daiko
 10
2.552634
 20
1.392944
 30
0.000000
 11
2.552634
 21
1.333835
 31
0.000000
  0
LINE
  8
daiko
 10
2.552634
 20
1.333835
 30
0.000000
 11
2.484381
 21
1.373241
 31
0.000000
  0
LINE
  8
daiko
 10
2.484381
 20
1.373241
 30
0.000000
 11
2.484381
 21
1.432350
 31
0.000000
  0
LINE
  8
daiko
 10
2.441723
 20
1.506236
 30
0.000000
 11
2.390533
 21
1.535790
 31
0.000000
  0
LINE
  8
daiko
 10
2.390533
 20
1.535790
 30
0.000000
 11
2.390533
 21
1.614603
 31
0.000000
  0
LINE
  8
daiko
 10
2.390533
 20
1.614603
 30
0.000000
 11
2.441723
 21
1.585048
 31
0.000000
  0
LINE
  8
daiko
 10
2.484381
 20
1.609677
 30
0.000000
 11
2.484381
 21
1.668786
 31
0.000000
  0
LINE
  8
daiko
 10
2.484381
 20
1.668786
 30
0.000000
 11
2.552634
 21
1.629380
 31
0.000000
  0
LINE
  8
daiko
 10
2.566370
 20
4.698762
 30
0.000000
 11
2.634623
 21
4.659356
 31
0.000000
  0
LINE
  8
daiko
 10
2.634623
 20
4.659356
 30
0.000000
 11
2.634623
 21
4.600247
 31
0.000000
  0
LINE
  8
daiko
 10
2.677281
 20
4.526361
 30
0.000000
 11
2.728471
 21
4.496807
 31
0.000000
  0
LINE
  8
daiko
 10
2.728471
 20
4.496807
 30
0.000000
 11
2.728471
 21
4.417994
 31
0.000000
  0
LINE
  8
daiko
 10
2.728471
 20
4.417994
 30
0.000000
 11
2.677281
 21
4.447549
 31
0.000000
  0
LINE
  8
daiko
 10
2.634623
 20
4.422920
 30
0.000000
 11
2.634623
 21
4.363811
 31
0.000000
  0
LINE
  8
daiko
 10
2.634623
 20
4.363811
 30
0.000000
 11
2.566370
 21
4.403217
 31
0.000000
  0
LINE
  8
daiko
 10
2.566370
 20
4.403217
 30
0.000000
 11
2.566370
 21
4.462326
 31
0.000000
  0
LINE
  8
daiko
 10
2.523711
 20
4.536213
 30
0.000000
 11
2.472521
 21
4.565767
 31
0.000000
  0
LINE
  8
daiko
 10
2.472521
 20
4.565767
 30
0.000000
 11
2.472521
 21
4.644579
 31
0.000000
  0
LINE
  8
daiko
 10
2.472521
 20
4.644579
 30
0.000000
 11
2.523711
 21
4.615025
 31
0.000000
  0
LINE
  8
daiko
 10
2.566370
 20
4.639653
 30
0.000000
 11
2.566370
 21
4.698762
 31
0.000000
  0
LINE
  8
daiko
 10
0.416392
 20
5.940052
 30
0.000000
 11
0.416392
 21
5.880943
 31
0.000000
  0
LINE
  8
daiko
 10
0.459051
 20
5.807057
 30
0.000000
 11
0.510241
 21
5.777503
 31
0.000000
  0
LINE
  8
daiko
 10
0.510241
 20
5.777503
 30
0.000000
 11
0.510241
 21
5.698690
 31
0.000000
  0
LINE
  8
daiko
 10
0.510241
 20
5.698690
 30
0.000000
 11
0.459051
 21
5.728245
 31
0.000000
  0
LINE
  8
daiko
 10
0.416392
 20
5.703616
 30
0.000000
 11
0.416392
 21
5.644507
 31
0.000000
  0
LINE
  8
daiko
 10
0.416392
 20
5.644507
 30
0.000000
 11
0.348139
 21
5.683913
 31
0.000000
  0
LINE
  8
daiko
 10
0.348139
 20
5.683913
 30
0.000000
 11
0.348139
 21
5.743022
 31
0.000000
  0
LINE
  8
daiko
 10
0.305481
 20
5.816909
 30
0.000000
 11
0.254291
 21
5.846463
 31
0.000000
  0
LINE
  8
daiko
 10
0.254291
 20
5.846463
 30
0.000000
 11
0.254291
 21
5.925275
 31
0.000000
  0
LINE
  8
daiko
 10
0.254291
 20
5.925275
 30
0.000000
 11
0.305481
 21
5.895721
 31
0.000000
  0
LINE
  8
daiko
 10
0.348139
 20
5.920349
 30
0.000000
 11
0.348139
 21
5.979458
 31
0.000000
  0
LINE
  8
daiko
 10
0.348139
 20
5.979458
 30
0.000000
 11
0.416392
 21
5.940052
 31
0.000000
  0
LINE
  8
daiko
 10
1.217400
 20
5.189449
 30
0.000000
 11
1.217400
 21
5.130340
 31
0.000000
  0
LINE
  8
daiko
 10
1.260058
 20
5.056454
 30
0.000000
 11
1.311248
 21
5.026899
 31
0.000000
  0
LINE
  8
daiko
 10
1.311248
 20
5.026899
 30
0.000000
 11
1.311248
 21
4.948087
 31
0.000000
  0
LINE
  8
daiko
 10
1.311248
 20
4.948087
 30
0.000000
 11
1.260058
 21
4.977642
 31
0.000000
  0
LINE
  8
daiko
 10
1.217400
 20
4.953013
 30
0.000000
 11
1.217400
 21
4.893904
 31
0.000000
  0
LINE
  8
daiko
 10
1.217400
 20
4.893904
 30
0.000000
 11
1.149147
 21
4.933310
 31
0.000000
  0
LINE
  8
daiko
 10
1.149147
 20
4.933310
 30
0.000000
 11
1.149147
 21
4.992419
 31
0.000000
  0
LINE
  8
daiko
 10
1.106488
 20
5.066305
 30
0.000000
 11
1.055298
 21
5.095860
 31
0.000000
  0
LINE
  8
daiko
 10
1.055298
 20
5.095860
 30
0.000000
 11
1.055298
 21
5.174672
 31
0.000000
  0
LINE
  8
daiko
 10
1.055298
 20
5.174672
 30
0.000000
 11
1.106488
 21
5.145117
 31
0.000000
  0
LINE
  8
daiko
 10
1.149147
 20
5.169746
 30
0.000000
 11
1.149147
 21
5.228855
 31
0.000000
  0
LINE
  8
daiko
 10
1.149147
 20
5.228855
 30
0.000000
 11
1.217400
 21
5.189449
 31
0.000000
  0
LINE
  8
daiko
 10
0.339607
 20
6.358741
 30
0.000000
 11
0.085467
 21
6.505470
 31
0.000000
  0
LINE
  8
daiko
 10
2.897295
 20
4.882060
 30
0.000000
 11
2.643155
 21
5.028788
 31
0.000000
  0
LINE
  8
daiko
 10
3.417226
 20
3.124779
 30
0.000000
 11
2.717009
 21
3.529049
 31
0.000000
  0
LINE
  8
daiko
 10
4.273819
 20
1.896809
 30
0.000000
 11
4.342072
 21
1.936215
 31
0.000000
  0
LINE
  8
daiko
 10
4.273819
 20
1.837700
 30
0.000000
 11
4.273819
 21
1.896809
 31
0.000000
  0
LINE
  8
daiko
 10
4.179971
 20
1.734259
 30
0.000000
 11
4.231161
 21
1.763814
 31
0.000000
  0
LINE
  8
daiko
 10
4.179971
 20
1.655447
 30
0.000000
 11
4.179971
 21
1.734259
 31
0.000000
  0
LINE
  8
daiko
 10
4.231161
 20
1.685001
 30
0.000000
 11
4.179971
 21
1.655447
 31
0.000000
  0
LINE
  8
daiko
 10
4.273819
 20
1.601264
 30
0.000000
 11
4.273819
 21
1.660373
 31
0.000000
  0
LINE
  8
daiko
 10
4.342072
 20
1.640670
 30
0.000000
 11
4.273819
 21
1.601264
 31
0.000000
  0
LINE
  8
daiko
 10
4.342072
 20
1.699779
 30
0.000000
 11
4.342072
 21
1.640670
 31
0.000000
  0
LINE
  8
daiko
 10
4.435920
 20
1.803220
 30
0.000000
 11
4.384730
 21
1.773665
 31
0.000000
  0
LINE
  8
daiko
 10
4.435920
 20
1.882032
 30
0.000000
 11
4.435920
 21
1.803220
 31
0.000000
  0
LINE
  8
daiko
 10
4.384730
 20
1.852477
 30
0.000000
 11
4.435920
 21
1.882032
 31
0.000000
  0
LINE
  8
daiko
 10
4.342072
 20
1.936215
 30
0.000000
 11
4.342072
 21
1.877106
 31
0.000000
  0
LINE
  8
daiko
 10
0.960109
 20
4.421928
 30
0.000000
 11
0.960109
 21
1.485475
 31
0.000000
  0
LINE
  8
daiko
 10
11.650669
 20
5.264138
 30
0.000000
 11
11.650669
 21
4.350225
 31
0.000000
  0
LINE
  8
daiko
 10
11.513516
 20
5.433357
 30
0.000000
 11
3.504528
 21
3.171400
 31
0.000000
  0
LINE
  8
daiko
 10
11.540075
 20
4.203951
 30
0.000000
 11
3.771265
 21
2.005823
 31
0.000000
  0
LINE
  8
daiko
 10
10.681541
 20
5.860955
 30
0.000000
 11
11.569619
 21
5.404522
 31
0.000000
  0
LINE
  8
daiko
 10
2.523544
 20
3.595047
 30
0.000000
 11
2.421377
 21
3.622057
 31
0.000000
  0
LINE
  8
daiko
 10
11.786310
 20
6.172533
 30
0.000000
 11
40.967057
 21
14.420260
 31
0.000000
  0
LINE
  8
daiko
 10
41.470833
 20
13.945828
 30
0.000000
 11
13.308593
 21
5.940285
 31
0.000000
  0
LINE
  8
daiko
 10
41.456171
 20
12.735209
 30
0.000000
 11
13.442701
 21
4.743995
 31
0.000000
  0
LINE
  8
daiko
 10
49.426407
 20
18.145763
 30
0.000000
 11
49.457021
 21
18.092050
 31
0.000000
  0
LINE
  8
daiko
 10
48.846602
 20
18.480513
 30
0.000000
 11
49.426407
 21
18.145763
 31
0.000000
  0
LINE
  8
daiko
 10
47.429999
 20
19.298389
 30
0.000000
 11
48.009804
 21
18.963639
 31
0.000000
  0
LINE
  8
daiko
 10
40.967058
 20
14.420260
 30
0.000000
 11
49.393442
 21
16.792398
 31
0.000000
  0
LINE
  8
daiko
 10
47.424112
 20
14.872951
 30
0.000000
 11
47.029136
 21
14.760948
 31
0.000000
  0
LINE
  8
daiko
 10
49.385424
 20
13.169135
 30
0.000000
 11
49.385424
 21
14.984628
 31
0.000000
  0
LINE
  8
daiko
 10
49.466475
 20
15.007612
 30
0.000000
 11
43.556509
 21
13.331043
 31
0.000000
  0
LINE
  8
daiko
 10
47.391607
 20
19.291345
 30
0.000000
 11
47.162880
 21
19.423400
 31
0.000000
  0
LINE
  8
daiko
 10
49.693526
 20
17.962331
 30
0.000000
 11
49.464799
 21
18.094386
 31
0.000000
  0
LINE
  8
daiko
 10
49.764002
 20
17.981710
 30
0.000000
 11
49.535275
 21
18.113765
 31
0.000000
  0
LINE
  8
daiko
 10
47.462083
 20
19.310723
 30
0.000000
 11
47.233356
 21
19.442779
 31
0.000000
  0
LINE
  8
daiko
 10
49.385424
 20
16.176854
 30
0.000000
 11
48.478289
 21
16.536668
 31
0.000000
  0
LINE
  8
daiko
 10
49.086204
 20
14.575894
 30
0.000000
 11
49.086204
 21
14.516785
 31
0.000000
  0
LINE
  8
daiko
 10
49.128862
 20
14.492156
 30
0.000000
 11
49.180052
 21
14.521711
 31
0.000000
  0
LINE
  8
daiko
 10
49.180052
 20
14.521711
 30
0.000000
 11
49.180052
 21
14.442899
 31
0.000000
  0
LINE
  8
daiko
 10
49.180052
 20
14.442899
 30
0.000000
 11
49.128862
 21
14.413344
 31
0.000000
  0
LINE
  8
daiko
 10
49.086204
 20
14.339458
 30
0.000000
 11
49.086204
 21
14.280349
 31
0.000000
  0
LINE
  8
daiko
 10
49.086204
 20
14.280349
 30
0.000000
 11
49.017951
 21
14.240943
 31
0.000000
  0
LINE
  8
daiko
 10
49.017951
 20
14.240943
 30
0.000000
 11
49.017951
 21
14.300052
 31
0.000000
  0
LINE
  8
daiko
 10
48.975293
 20
14.324681
 30
0.000000
 11
48.924103
 21
14.295126
 31
0.000000
  0
LINE
  8
daiko
 10
48.924103
 20
14.295126
 30
0.000000
 11
48.924103
 21
14.373938
 31
0.000000
  0
LINE
  8
daiko
 10
48.924103
 20
14.373938
 30
0.000000
 11
48.975293
 21
14.403493
 31
0.000000
  0
LINE
  8
daiko
 10
49.017951
 20
14.477379
 30
0.000000
 11
49.017951
 21
14.536488
 31
0.000000
  0
LINE
  8
daiko
 10
49.017951
 20
14.536488
 30
0.000000
 11
49.086204
 21
14.575894
 31
0.000000
  0
LINE
  8
daiko
 10
49.466475
 20
16.036470
 30
0.000000
 11
49.466475
 21
15.007612
 31
0.000000
  0
LINE
  8
daiko
 10
49.378554
 20
16.179579
 30
0.000000
 11
43.262722
 21
14.451996
 31
0.000000
  0
LINE
  8
daiko
 10
3.455189
 20
0.005288
 30
0.000000
 11
49.375653
 21
13.141015
 31
0.000000
  0
LINE
  8
daiko
 10
2.897295
 20
4.882060
 30
0.000000
 11
49.788425
 21
17.963004
 31
0.000000
  0
LINE
  8
daiko
 10
2.643155
 20
5.028788
 30
0.000000
 11
49.535275
 21
18.113765
 31
0.000000
  0
LINE
  8
daiko
 10
49.426407
 20
18.145762
 30
0.000000
 11
2.657281
 21
5.244038
 31
0.000000
  0
LINE
  8
daiko
 10
2.339083
 20
5.650955
 30
0.000000
 11
48.846602
 21
18.480513
 31
0.000000
  0
LINE
  8
daiko
 10
48.221116
 20
18.907575
 30
0.000000
 11
1.820497
 21
6.107507
 31
0.000000
  0
LINE
  8
daiko
 10
0.339607
 20
6.358741
 30
0.000000
 11
47.462083
 21
19.310723
 31
0.000000
  0
LINE
  8
daiko
 10
0.033213
 20
6.514999
 30
0.000000
 11
47.187846
 21
19.451802
 31
0.000000
  0
LINE
  8
daiko
 10
0.928411
 20
6.470467
 30
0.000000
 11
47.429999
 21
19.298389
 31
0.000000
  0
TEXT
  8
daiko
 10
0.000000
 20
-10.000000
 30
0.000000
 40
4.000000
  1
LZY-92860NT
  7
BIGFONT
  0
TEXT
  8
daiko
 10
0.000000
 20
-14.000000
 30
0.000000
 40
3.000000
  1
LED9.5W        4000K
  7
BIGFONT
  0
TEXT
  8
daiko
 10
0.000000
 20
-18.000000
 30
0.000000
 40
3.000000
  1
演色性 Ra83    ｼﾙﾊﾞｰ
  7
BIGFONT
  0
ENDSEC
  0
EOF
