  0
SECTION
  2
HEADER
  9
$EXTMIN
 10
0.000000
 20
-19.000000
 30
0.000000
  9
$EXTMAX
 10
50.016261
 20
17.682785
 30
0.000000
  0
ENDSEC
  0
SECTION
  2
TABLES
  0
TABLE
  2
LTYPE
 70
     8
  0
LTYPE
  2
CENTER_DASH_DASH
 70
     0
  3
Center_Dash_Dash
 72
    65
 73
     6
 40
22.000000
 49
12.000000
 49
-3.000000
 49
0.500000
 49
-3.000000
 49
0.500000
 49
-3.000000
  0
LTYPE
  2
CONTINUOUS
 70
     0
  3
Solid line
 72
    65
 73
     0
 40
0.000000
  0
LTYPE
  2
DASHED
 70
     0
  3
Dashed
 72
    65
 73
     2
 40
15.000000
 49
12.000000
 49
-3.000000
  0
LTYPE
  2
DASH_CENTER
 70
     0
  3
Dash_Center
 72
    65
 73
     4
 40
36.000000
 49
24.000000
 49
-3.000000
 49
6.000000
 49
-3.000000
  0
LTYPE
  2
DOTTED
 70
     0
  3
Dotted
 72
    65
 73
     2
 40
3.500000
 49
0.500000
 49
-3.000000
  0
LTYPE
  2
DOT_CENTER
 70
     0
  3
Dot_Center
 72
    65
 73
     4
 40
2.000000
 49
1.250000
 49
-0.250000
 49
0.250000
 49
-0.250000
  0
LTYPE
  2
LONG_DASHED
 70
     0
  3
Long_Dashed
 72
    65
 73
     2
 40
2.000000
 49
1.500000
 49
-0.500000
  0
LTYPE
  2
PHANTOM
 70
     0
  3
Phantom
 72
    65
 73
     6
 40
2.500000
 49
1.250000
 49
-0.250000
 49
0.250000
 49
-0.250000
 49
0.250000
 49
-0.250000
  0
ENDTAB
  0
TABLE
  2
STYLE
 70
     3
  0
STYLE
  2
BIGFONT
 70
     0
 40
1.000000
 41
1.000000
 50
0.000000
 71
     0
 42
0.000000
  3
txt
  4
bigfont
  0
STYLE
  2
CONVERTER_1
 70
     0
 40
0.000000
 41
0.900000
 50
0.000000
 71
     0
 42
0.000000
  3
txt.shx
  4

  0
STYLE
  2
STANDARD
 70
     0
 40
0.000000
 41
1.000000
 50
0.000000
 71
     0
 42
0.000000
  3
txt
  4

  0
ENDTAB
  0
TABLE
  2
LAYER
 70
     1
  0
LAYER
  2
daiko
 70
     0
 62
     7
  6
CONTINUOUS
  0
ENDTAB
  0
ENDSEC
  0
SECTION
  2
ENTITIES
  0
ARC
  8
daiko
 10
0.932365
 20
1.758151
 30
0.000000
 40
0.060968
 50
188.896113
 51
267.480113
  0
ARC
  8
daiko
 10
1.889195
 20
1.792171
 30
0.000000
 40
0.060968
 50
8.896113
 51
105.963384
  0
ARC
  8
daiko
 10
1.466417
 20
1.734648
 30
0.000000
 40
0.060968
 50
188.896113
 51
285.963384
  0
ARC
  8
daiko
 10
2.415324
 20
1.447139
 30
0.000000
 40
0.148153
 50
180.000000
 51
285.815809
  0
ARC
  8
daiko
 10
44.542180
 20
13.413440
 30
0.000000
 40
0.098768
 50
285.815809
 51
0.000000
  0
ARC
  8
daiko
 10
44.803564
 20
14.083489
 30
0.000000
 40
0.148153
 50
239.574266
 51
285.773781
  0
ARC
  8
daiko
 10
44.801250
 20
14.087168
 30
0.000000
 40
0.098768
 50
240.000000
 51
285.773781
  0
ARC
  8
daiko
 10
2.470752
 20
1.462821
 30
0.000000
 40
0.148153
 50
180.000000
 51
285.815809
  0
ARC
  8
daiko
 10
7.470285
 20
2.826197
 30
0.000000
 40
0.098768
 50
285.815809
 51
0.000000
  0
ARC
  8
daiko
 10
7.731668
 20
3.496246
 30
0.000000
 40
0.148153
 50
239.574266
 51
285.773781
  0
ARC
  8
daiko
 10
7.729355
 20
3.499925
 30
0.000000
 40
0.098768
 50
240.000000
 51
285.773781
  0
ARC
  8
daiko
 10
45.503723
 20
14.299694
 30
0.000000
 40
0.112340
 50
286.449345
 51
332.500682
  0
ARC
  8
daiko
 10
45.523350
 20
14.290332
 30
0.000000
 40
0.151540
 50
285.765061
 51
335.487720
  0
ARC
  8
daiko
 10
45.905004
 20
13.872771
 30
0.000000
 40
0.169507
 50
186.805033
 51
279.718877
  0
ARC
  8
daiko
 10
45.904221
 20
13.809326
 30
0.000000
 40
0.107717
 50
203.142771
 51
285.837839
  0
ARC
  8
daiko
 10
0.656635
 20
2.320674
 30
0.000000
 40
0.146510
 50
177.158545
 51
243.164144
  0
ARC
  8
daiko
 10
0.736544
 20
2.298885
 30
0.000000
 40
0.172932
 50
177.592959
 51
212.376470
  0
ARC
  8
daiko
 10
9.489193
 20
3.585064
 30
0.000000
 40
0.133380
 50
194.830798
 51
16.832502
  0
ARC
  8
daiko
 10
4.990120
 20
2.309270
 30
0.000000
 40
0.133380
 50
194.830798
 51
16.832502
  0
ARC
  8
daiko
 10
43.819534
 20
13.393006
 30
0.000000
 40
0.133380
 50
194.830798
 51
16.832502
  0
ARC
  8
daiko
 10
0.582703
 20
3.398249
 30
0.000000
 40
0.805658
 50
54.514418
 51
110.381489
  0
ARC
  8
daiko
 10
-0.041964
 20
2.237112
 30
0.000000
 40
2.120206
 50
29.757743
 51
58.988575
  0
ARC
  8
daiko
 10
0.501218
 20
3.375843
 30
0.000000
 40
0.805658
 50
54.514418
 51
110.381489
  0
ARC
  8
daiko
 10
-0.123449
 20
2.214706
 30
0.000000
 40
2.120206
 50
29.757743
 51
58.988575
  0
ARC
  8
daiko
 10
2.649982
 20
1.234502
 30
0.000000
 40
0.240090
 50
263.150027
 51
28.032903
  0
ARC
  8
daiko
 10
2.715993
 20
1.196859
 30
0.000000
 40
0.060638
 50
302.804007
 51
357.195993
  0
ARC
  8
daiko
 10
2.837608
 20
1.216432
 30
0.000000
 40
0.016986
 50
169.617127
 51
310.382873
  0
ARC
  8
daiko
 10
2.882048
 20
1.100987
 30
0.000000
 40
0.061238
 50
123.091934
 51
176.908066
  0
ARC
  8
daiko
 10
2.759986
 20
1.081986
 30
0.000000
 40
0.016897
 50
348.746457
 51
131.253543
  0
ARC
  8
daiko
 10
2.694291
 20
1.086414
 30
0.000000
 40
0.116073
 50
176.370537
 51
231.065346
  0
ARC
  8
daiko
 10
2.913129
 20
1.076790
 30
0.000000
 40
0.335108
 50
123.669105
 51
177.096997
  0
ARC
  8
daiko
 10
2.801004
 20
1.248017
 30
0.000000
 40
0.130453
 50
89.023963
 51
124.376684
  0
ARC
  8
daiko
 10
2.801042
 20
1.303439
 30
0.000000
 40
0.075043
 50
35.802843
 51
88.332173
  0
ARC
  8
daiko
 10
2.207362
 20
1.968333
 30
0.000000
 40
0.115265
 50
1.257920
 51
58.742080
  0
ARC
  8
daiko
 10
1.718284
 20
2.220524
 30
0.000000
 40
0.086062
 50
57.004563
 51
98.908730
  0
ARC
  8
daiko
 10
1.673894
 20
2.196505
 30
0.000000
 40
0.184370
 50
59.804328
 51
68.618306
  0
ARC
  8
daiko
 10
1.666050
 20
2.422491
 30
0.000000
 40
0.090884
 50
252.989403
 51
307.250662
  0
ARC
  8
daiko
 10
1.595464
 20
2.461509
 30
0.000000
 40
0.110944
 50
235.044373
 51
302.264207
  0
ARC
  8
daiko
 10
1.467106
 20
2.409306
 30
0.000000
 40
0.080476
 50
235.473658
 51
280.439636
  0
ARC
  8
daiko
 10
1.487683
 20
2.375759
 30
0.000000
 40
0.117371
 50
234.796620
 51
281.116673
  0
ARC
  8
daiko
 10
1.536263
 20
0.902211
 30
0.000000
 40
0.547940
 50
328.063570
 51
11.727599
  0
ARC
  8
daiko
 10
1.861222
 20
0.707520
 30
0.000000
 40
0.169313
 50
265.139125
 51
325.804374
  0
ARC
  8
daiko
 10
1.423774
 20
0.899233
 30
0.000000
 40
0.597498
 50
334.611707
 51
10.858995
  0
ARC
  8
daiko
 10
1.800339
 20
0.708346
 30
0.000000
 40
0.175801
 50
264.279618
 51
338.198759
  0
ARC
  8
daiko
 10
1.848028
 20
0.816090
 30
0.000000
 40
0.290094
 50
215.358251
 51
257.009243
  0
ARC
  8
daiko
 10
2.193130
 20
1.057926
 30
0.000000
 40
0.711493
 50
188.668319
 51
215.158786
  0
ARC
  8
daiko
 10
2.055378
 20
1.027052
 30
0.000000
 40
0.533915
 50
162.418797
 51
193.522177
  0
ARC
  8
daiko
 10
1.918704
 20
0.957210
 30
0.000000
 40
0.386376
 50
188.183591
 51
234.663281
  0
ARC
  8
daiko
 10
1.769700
 20
0.745087
 30
0.000000
 40
0.126898
 50
235.741413
 51
309.209560
  0
ARC
  8
daiko
 10
1.576858
 20
0.888247
 30
0.000000
 40
0.364525
 50
318.511763
 51
1.639102
  0
ARC
  8
daiko
 10
1.372752
 20
0.904499
 30
0.000000
 40
0.568511
 50
359.412857
 51
29.811031
  0
ARC
  8
daiko
 10
1.652147
 20
1.086911
 30
0.000000
 40
0.236199
 50
25.106090
 51
74.344430
  0
ARC
  8
daiko
 10
1.691566
 20
1.193619
 30
0.000000
 40
0.123154
 50
78.610229
 51
128.281670
  0
ARC
  8
daiko
 10
1.763918
 20
1.115659
 30
0.000000
 40
0.229332
 50
130.404678
 51
161.526952
  0
ARC
  8
daiko
 10
1.818645
 20
3.071125
 30
0.000000
 40
0.119024
 50
0.914586
 51
57.682646
  0
ARC
  8
daiko
 10
1.900390
 20
3.093676
 30
0.000000
 40
0.118762
 50
0.846391
 51
57.750842
  0
ARC
  8
daiko
 10
0.980653
 20
3.075678
 30
0.000000
 40
1.038674
 50
317.066394
 51
1.089679
  0
ARC
  8
daiko
 10
0.960378
 20
3.055665
 30
0.000000
 40
0.977430
 50
315.262841
 51
1.017693
  0
ARC
  8
daiko
 10
1.731242
 20
2.846337
 30
0.000000
 40
0.111046
 50
306.922806
 51
4.900762
  0
ARC
  8
daiko
 10
1.755101
 20
2.839908
 30
0.000000
 40
0.092827
 50
250.276592
 51
297.490936
  0
ARC
  8
daiko
 10
1.833077
 20
3.015221
 30
0.000000
 40
0.284526
 50
209.093487
 51
247.408533
  0
ARC
  8
daiko
 10
1.817774
 20
3.032701
 30
0.000000
 40
0.280574
 50
177.539194
 51
213.737340
  0
ARC
  8
daiko
 10
1.628347
 20
3.051900
 30
0.000000
 40
0.091170
 50
114.717076
 51
184.499671
  0
ARC
  8
daiko
 10
1.619703
 20
2.990561
 30
0.000000
 40
0.147139
 50
49.152417
 51
101.556962
  0
ARC
  8
daiko
 10
1.498271
 20
2.833682
 30
0.000000
 40
0.345401
 50
7.857358
 51
50.935802
  0
ARC
  8
daiko
 10
1.620234
 20
2.855568
 30
0.000000
 40
0.221647
 50
0.066163
 51
6.562831
  0
ARC
  8
daiko
 10
1.728224
 20
2.876679
 30
0.000000
 40
0.016913
 50
48.906717
 51
191.093283
  0
ARC
  8
daiko
 10
1.606307
 20
2.895821
 30
0.000000
 40
0.061062
 50
3.008281
 51
56.991719
  0
ARC
  8
daiko
 10
1.772134
 20
2.991561
 30
0.000000
 40
0.060578
 50
182.775041
 51
237.224959
  0
ARC
  8
daiko
 10
1.650509
 20
3.011284
 30
0.000000
 40
0.017032
 50
230.045395
 51
9.954605
  0
ARC
  8
daiko
 10
0.525453
 20
3.536946
 30
0.000000
 40
0.651875
 50
7.543672
 51
38.565466
  0
ARC
  8
daiko
 10
0.864548
 20
3.842786
 30
0.000000
 40
0.198027
 50
30.512807
 51
104.617187
  0
ARC
  8
daiko
 10
0.735657
 20
3.722928
 30
0.000000
 40
0.321317
 50
28.326140
 51
75.782343
  0
ARC
  8
daiko
 10
0.384844
 20
3.505413
 30
0.000000
 40
0.733760
 50
8.735019
 51
30.279693
  0
ARC
  8
daiko
 10
0.799992
 20
3.870258
 30
0.000000
 40
0.164792
 50
84.923335
 51
134.640165
  0
ARC
  8
daiko
 10
1.074507
 20
3.675393
 30
0.000000
 40
0.499758
 50
141.351325
 51
193.852213
  0
ARC
  8
daiko
 10
0.851707
 20
3.336115
 30
0.000000
 40
0.060882
 50
182.921880
 51
237.078120
  0
ARC
  8
daiko
 10
0.686675
 20
3.240834
 30
0.000000
 40
0.059943
 50
2.462164
 51
57.537836
  0
ARC
  8
daiko
 10
0.729206
 20
3.356674
 30
0.000000
 40
0.017465
 50
233.628815
 51
6.371185
  0
ARC
  8
daiko
 10
0.807474
 20
3.221109
 30
0.000000
 40
0.016895
 50
48.732546
 51
191.267454
  0
ARC
  8
daiko
 10
0.749715
 20
3.346590
 30
0.000000
 40
0.294936
 50
19.685134
 51
73.384022
  0
ARC
  8
daiko
 10
0.543205
 20
3.225880
 30
0.000000
 40
0.531869
 50
337.945243
 51
24.440529
  0
ARC
  8
daiko
 10
0.885909
 20
3.091743
 30
0.000000
 40
0.163933
 50
284.485453
 51
336.420815
  0
ARC
  8
daiko
 10
0.908207
 20
3.082618
 30
0.000000
 40
0.150763
 50
231.034657
 51
277.127854
  0
ARC
  8
daiko
 10
1.109786
 20
3.298794
 30
0.000000
 40
0.446093
 50
193.191082
 51
228.363350
  0
ARC
  8
daiko
 10
1.147580
 20
3.341354
 30
0.000000
 40
0.493694
 50
161.132460
 51
197.001961
  0
ARC
  8
daiko
 10
0.829979
 20
3.477929
 30
0.000000
 40
0.151336
 50
88.457453
 51
171.229097
  0
ARC
  8
daiko
 10
0.111144
 20
4.207100
 30
0.000000
 40
0.049065
 50
58.185741
 51
93.879468
  0
ARC
  8
daiko
 10
0.031994
 20
4.193525
 30
0.000000
 40
0.040419
 50
54.395484
 51
104.933788
  0
ARC
  8
daiko
 10
0.030430
 20
4.205855
 30
0.000000
 40
0.028151
 50
108.327643
 51
156.428876
  0
ARC
  8
daiko
 10
0.052438
 20
4.195574
 30
0.000000
 40
0.052438
 50
155.748511
 51
184.297608
  0
ARC
  8
daiko
 10
2.427760
 20
4.304628
 30
0.000000
 40
2.430240
 50
182.664662
 51
208.669824
  0
ARC
  8
daiko
 10
0.208830
 20
3.844295
 30
0.000000
 40
0.017455
 50
233.555853
 51
6.444147
  0
ARC
  8
daiko
 10
0.331173
 20
3.823673
 30
0.000000
 40
0.060732
 50
182.849587
 51
237.150413
  0
ARC
  8
daiko
 10
0.165225
 20
3.727862
 30
0.000000
 40
0.061033
 50
2.994479
 51
57.005521
  0
ARC
  8
daiko
 10
0.287298
 20
3.708385
 30
0.000000
 40
0.017036
 50
50.081072
 51
189.918928
  0
ARC
  8
daiko
 10
0.194129
 20
3.878632
 30
0.000000
 40
0.099314
 50
120.074715
 51
188.557134
  0
ARC
  8
daiko
 10
0.183554
 20
3.855631
 30
0.000000
 40
0.115781
 50
57.828761
 51
109.786885
  0
ARC
  8
daiko
 10
0.063557
 20
3.667912
 30
0.000000
 40
0.338574
 50
6.369917
 51
57.554236
  0
ARC
  8
daiko
 10
0.269889
 20
3.684680
 30
0.000000
 40
0.131802
 50
321.512745
 51
9.078292
  0
ARC
  8
daiko
 10
0.313565
 20
3.665145
 30
0.000000
 40
0.086281
 50
249.363613
 51
313.591671
  0
ARC
  8
daiko
 10
0.420345
 20
3.878769
 30
0.000000
 40
0.324767
 50
182.632098
 51
245.012458
  0
ARC
  8
daiko
 10
8.201752
 20
3.013972
 30
0.000000
 40
0.233541
 50
46.581357
 51
136.148804
  0
ARC
  8
daiko
 10
8.261501
 20
2.938232
 30
0.000000
 40
0.329365
 50
133.847448
 51
194.236041
  0
ARC
  8
daiko
 10
8.155652
 20
2.901777
 30
0.000000
 40
0.218039
 50
191.620679
 51
262.483538
  0
ARC
  8
daiko
 10
8.138751
 20
2.964170
 30
0.000000
 40
0.278800
 50
267.611114
 51
326.274892
  0
ARC
  8
daiko
 10
8.071507
 20
3.010249
 30
0.000000
 40
0.393354
 50
285.489719
 51
330.831830
  0
ARC
  8
daiko
 10
8.101875
 20
2.910165
 30
0.000000
 40
0.288866
 50
238.191734
 51
285.767795
  0
ARC
  8
daiko
 10
8.150415
 20
2.954030
 30
0.000000
 40
0.352194
 50
184.795470
 51
235.240972
  0
ARC
  8
daiko
 10
8.246949
 20
2.970395
 30
0.000000
 40
0.449833
 50
125.275353
 51
185.844794
  0
ARC
  8
daiko
 10
8.170587
 20
3.103592
 30
0.000000
 40
0.297352
 50
32.046507
 51
128.086174
  0
ARC
  8
daiko
 10
8.619567
 20
3.745439
 30
0.000000
 40
0.113813
 50
2.441483
 51
57.558517
  0
ARC
  8
daiko
 10
8.398834
 20
5.026999
 30
0.000000
 40
1.507688
 50
226.774838
 51
262.629450
  0
ARC
  8
daiko
 10
8.231670
 20
4.710428
 30
0.000000
 40
0.905825
 50
230.637579
 51
266.601076
  0
ARC
  8
daiko
 10
7.444803
 20
3.410307
 30
0.000000
 40
0.124623
 50
4.431259
 51
73.619227
  0
ARC
  8
daiko
 10
45.691462
 20
14.332325
 30
0.000000
 40
0.113829
 50
2.620811
 51
63.216804
  0
ARC
  8
daiko
 10
44.526337
 20
14.001810
 30
0.000000
 40
0.114737
 50
2.682088
 51
57.317912
  0
ARC
  8
daiko
 10
8.242494
 20
3.257010
 30
0.000000
 40
0.552964
 50
54.970317
 51
96.701348
  0
ARC
  8
daiko
 10
8.133293
 20
3.271109
 30
0.000000
 40
0.611920
 50
11.335293
 51
45.800860
  0
ARC
  8
daiko
 10
8.341120
 20
3.234429
 30
0.000000
 40
0.422399
 50
280.070612
 51
21.812803
  0
ARC
  8
daiko
 10
8.239169
 20
3.577595
 30
0.000000
 40
0.779152
 50
247.599470
 51
283.040865
  0
ARC
  8
daiko
 10
8.197234
 20
3.415868
 30
0.000000
 40
0.284927
 50
235.937883
 51
305.395872
  0
ARC
  8
daiko
 10
8.256001
 20
3.328393
 30
0.000000
 40
0.179602
 50
306.277429
 51
74.888026
  0
ARC
  8
daiko
 10
8.088884
 20
2.980008
 30
0.000000
 40
0.563932
 50
67.705228
 51
78.074122
  0
ARC
  8
daiko
 10
0.583308
 20
3.266886
 30
0.000000
 40
0.315095
 50
204.006564
 51
238.917206
  0
ARC
  8
daiko
 10
2.233430
 20
0.020275
 30
0.000000
 40
0.020275
 50
228.738333
 51
11.261667
  0
ARC
  8
daiko
 10
0.663795
 20
0.988183
 30
0.000000
 40
0.073405
 50
183.060217
 51
236.939783
  0
ARC
  8
daiko
 10
1.718106
 20
1.022645
 30
0.000000
 40
0.059796
 50
182.388974
 51
237.611026
  0
ARC
  8
daiko
 10
1.674970
 20
0.908183
 30
0.000000
 40
0.016921
 50
48.981865
 51
191.018135
  0
ARC
  8
daiko
 10
1.554288
 20
0.928125
 30
0.000000
 40
0.059732
 50
0.222105
 51
57.586247
  0
ARC
  8
daiko
 10
1.597134
 20
1.043000
 30
0.000000
 40
0.017109
 50
230.738874
 51
9.261126
  0
ARC
  8
daiko
 10
48.318607
 20
14.668800
 30
0.000000
 40
0.133380
 50
194.830798
 51
16.832502
  0
ARC
  8
daiko
 10
48.677682
 20
16.898209
 30
0.000000
 40
0.725092
 50
54.514418
 51
106.820815
  0
ARC
  8
daiko
 10
48.115482
 20
15.853186
 30
0.000000
 40
1.908186
 50
29.757743
 51
58.988575
  0
ARC
  8
daiko
 10
48.161269
 20
15.865776
 30
0.000000
 40
1.908186
 50
29.757743
 51
58.988575
  0
ARC
  8
daiko
 10
48.723468
 20
16.910799
 30
0.000000
 40
0.725092
 50
54.514418
 51
110.381489
  0
ARC
  8
daiko
 10
49.355161
 20
14.491043
 30
0.000000
 40
0.240090
 50
263.150027
 51
28.032903
  0
ARC
  8
daiko
 10
49.665120
 20
15.461000
 30
0.000000
 40
0.108032
 50
1.232196
 51
61.897698
  0
ARC
  8
daiko
 10
48.948940
 20
16.645211
 30
0.000000
 40
1.021722
 50
316.762198
 51
358.904250
  0
ARC
  8
daiko
 10
49.024320
 20
16.645965
 30
0.000000
 40
0.991971
 50
316.107419
 51
359.555090
  0
ARC
  8
daiko
 10
49.542956
 20
14.473266
 30
0.000000
 40
0.017103
 50
170.685510
 51
309.314490
  0
ARC
  8
daiko
 10
49.421723
 20
14.453081
 30
0.000000
 40
0.060071
 50
302.526052
 51
357.473948
  0
ARC
  8
daiko
 10
49.465052
 20
14.338332
 30
0.000000
 40
0.016971
 50
349.467804
 51
130.532196
  0
ARC
  8
daiko
 10
49.586187
 20
14.358128
 30
0.000000
 40
0.060169
 50
122.574525
 51
177.425475
  0
ARC
  8
daiko
 10
49.386067
 20
14.334333
 30
0.000000
 40
0.101068
 50
186.463518
 51
233.904449
  0
ARC
  8
daiko
 10
49.607445
 20
14.340124
 30
0.000000
 40
0.322261
 50
142.508142
 51
183.053911
  0
ARC
  8
daiko
 10
49.556076
 20
14.399250
 30
0.000000
 40
0.246014
 50
111.531055
 51
146.154713
  0
ARC
  8
daiko
 10
49.502092
 20
14.555990
 30
0.000000
 40
0.080730
 50
36.385584
 51
116.724157
  0
ARC
  8
daiko
 10
49.862192
 20
16.623303
 30
0.000000
 40
0.108309
 50
1.253459
 51
57.343774
  0
ARC
  8
daiko
 10
49.909399
 20
16.636690
 30
0.000000
 40
0.106874
 50
0.842809
 51
57.754423
  0
ARC
  8
daiko
 10
49.644968
 20
17.498061
 30
0.000000
 40
0.524519
 50
218.263934
 51
238.437039
  0
ARC
  8
daiko
 10
48.954587
 20
17.001478
 30
0.000000
 40
0.327244
 50
31.658715
 51
88.341285
  0
ARC
  8
daiko
 10
48.952366
 20
17.561442
 30
0.000000
 40
0.233151
 50
237.407342
 51
272.874753
  0
ARC
  8
daiko
 10
48.300016
 20
17.641164
 30
0.000000
 40
0.041621
 50
57.555729
 51
100.014261
  0
ARC
  8
daiko
 10
48.253066
 20
17.624940
 30
0.000000
 40
0.045334
 50
58.244755
 51
96.348246
  0
ARC
  8
daiko
 10
49.697181
 20
13.598367
 30
0.000000
 40
0.023389
 50
316.416891
 51
5.260403
  0
LINE
  8
daiko
 10
1.351330
 20
2.474831
 30
0.000000
 11
1.531899
 21
2.370579
 31
0.000000
  0
LINE
  8
daiko
 10
1.421493
 20
2.343005
 30
0.000000
 11
1.367044
 21
2.374441
 31
0.000000
  0
LINE
  8
daiko
 10
1.375999
 20
2.305269
 30
0.000000
 11
1.420020
 21
2.279853
 31
0.000000
  0
LINE
  8
daiko
 10
1.510313
 20
2.260589
 30
0.000000
 11
1.704956
 21
2.305549
 31
0.000000
  0
LINE
  8
daiko
 10
1.576835
 20
2.352140
 30
0.000000
 11
1.481688
 21
2.330162
 31
0.000000
  0
LINE
  8
daiko
 10
1.463736
 20
1.673738
 30
0.000000
 11
0.929684
 21
1.697241
 31
0.000000
  0
LINE
  8
daiko
 10
1.444252
 20
1.881184
 30
0.000000
 11
1.893014
 21
1.853020
 31
0.000000
  0
LINE
  8
daiko
 10
1.467155
 20
1.734859
 30
0.000000
 11
1.872427
 21
1.850788
 31
0.000000
  0
LINE
  8
daiko
 10
1.483185
 20
1.676030
 30
0.000000
 11
1.888457
 21
1.791960
 31
0.000000
  0
LINE
  8
daiko
 10
1.375983
 20
1.677600
 30
0.000000
 11
1.489764
 21
0.950694
 31
0.000000
  0
LINE
  8
daiko
 10
2.010573
 20
1.011797
 30
0.000000
 11
1.888457
 21
1.791960
 31
0.000000
  0
LINE
  8
daiko
 10
2.072165
 20
1.017478
 30
0.000000
 11
1.949430
 21
1.801600
 31
0.000000
  0
LINE
  8
daiko
 10
45.736691
 20
13.852686
 30
0.000000
 11
45.736691
 21
14.358159
 31
0.000000
  0
LINE
  8
daiko
 10
45.535534
 20
14.191953
 30
0.000000
 11
44.828099
 21
13.992119
 31
0.000000
  0
LINE
  8
daiko
 10
45.564523
 20
14.144492
 30
0.000000
 11
44.843837
 21
13.940915
 31
0.000000
  0
LINE
  8
daiko
 10
45.736691
 20
14.358159
 30
0.000000
 11
45.718046
 21
14.446449
 31
0.000000
  0
LINE
  8
daiko
 10
44.728536
 20
13.955739
 30
0.000000
 11
44.640949
 21
14.007179
 31
0.000000
  0
LINE
  8
daiko
 10
45.736691
 20
14.358159
 30
0.000000
 11
45.661232
 21
14.227460
 31
0.000000
  0
LINE
  8
daiko
 10
44.751866
 20
14.001632
 30
0.000000
 11
44.551844
 21
14.117114
 31
0.000000
  0
LINE
  8
daiko
 10
45.718046
 20
14.446449
 30
0.000000
 11
45.603370
 21
14.247823
 31
0.000000
  0
LINE
  8
daiko
 10
45.805172
 20
14.337530
 30
0.000000
 11
45.805172
 21
13.766990
 31
0.000000
  0
LINE
  8
daiko
 10
44.640949
 20
14.007179
 30
0.000000
 11
44.640949
 21
13.413440
 31
0.000000
  0
LINE
  8
daiko
 10
45.240615
 20
14.691820
 30
0.000000
 11
45.752516
 21
14.428733
 31
0.000000
  0
LINE
  8
daiko
 10
44.073124
 20
14.363155
 30
0.000000
 11
44.588293
 21
14.098382
 31
0.000000
  0
LINE
  8
daiko
 10
0.510305
 20
2.327936
 30
0.000000
 11
0.510305
 21
2.942183
 31
0.000000
  0
LINE
  8
daiko
 10
1.766623
 20
2.355858
 30
0.000000
 11
7.657174
 21
4.010090
 31
0.000000
  0
LINE
  8
daiko
 10
1.766623
 20
2.355858
 30
0.000000
 11
2.267172
 21
2.066866
 31
0.000000
  0
LINE
  8
daiko
 10
2.267172
 20
1.447139
 30
0.000000
 11
2.267172
 21
2.002864
 31
0.000000
  0
LINE
  8
daiko
 10
2.253315
 20
2.010864
 30
0.000000
 11
2.253315
 21
0.024235
 31
0.000000
  0
LINE
  8
daiko
 10
1.467155
 20
1.734859
 30
0.000000
 11
1.171686
 21
3.622526
 31
0.000000
  0
LINE
  8
daiko
 10
0.563765
 20
2.909478
 30
0.000000
 11
0.563765
 21
2.291622
 31
0.000000
  0
LINE
  8
daiko
 10
1.406182
 20
1.725219
 30
0.000000
 11
1.110093
 21
3.616845
 31
0.000000
  0
LINE
  8
daiko
 10
0.589284
 20
3.555741
 30
0.000000
 11
0.872130
 21
1.748722
 31
0.000000
  0
LINE
  8
daiko
 10
9.616859
 20
3.623687
 30
0.000000
 11
9.360256
 21
3.550923
 31
0.000000
  0
LINE
  8
daiko
 10
5.117785
 20
2.347893
 30
0.000000
 11
4.861183
 21
2.275129
 31
0.000000
  0
LINE
  8
daiko
 10
43.947199
 20
13.431630
 30
0.000000
 11
43.690597
 21
13.358865
 31
0.000000
  0
LINE
  8
daiko
 10
8.664796
 20
3.574810
 30
0.000000
 11
8.664796
 21
3.770916
 31
0.000000
  0
LINE
  8
daiko
 10
8.177966
 20
3.806196
 30
0.000000
 11
7.769717
 21
4.041899
 31
0.000000
  0
LINE
  8
daiko
 10
8.205419
 20
3.531769
 30
0.000000
 11
7.756204
 21
3.404876
 31
0.000000
  0
LINE
  8
daiko
 10
8.300244
 20
3.502905
 30
0.000000
 11
7.771942
 21
3.353672
 31
0.000000
  0
LINE
  8
daiko
 10
8.664796
 20
3.770916
 30
0.000000
 11
8.646151
 21
3.859206
 31
0.000000
  0
LINE
  8
daiko
 10
7.656640
 20
3.368496
 30
0.000000
 11
7.569053
 21
3.419936
 31
0.000000
  0
LINE
  8
daiko
 10
8.664796
 20
3.770916
 30
0.000000
 11
8.603571
 21
3.664872
 31
0.000000
  0
LINE
  8
daiko
 10
7.679970
 20
3.414389
 30
0.000000
 11
7.479949
 21
3.529871
 31
0.000000
  0
LINE
  8
daiko
 10
8.646151
 20
3.859206
 30
0.000000
 11
8.559896
 21
3.709808
 31
0.000000
  0
LINE
  8
daiko
 10
8.103806
 20
4.137938
 30
0.000000
 11
8.680621
 21
3.841490
 31
0.000000
  0
LINE
  8
daiko
 10
8.733277
 20
3.750287
 30
0.000000
 11
8.733277
 21
3.391382
 31
0.000000
  0
LINE
  8
daiko
 10
2.267172
 20
2.002864
 30
0.000000
 11
2.253315
 21
2.010864
 31
0.000000
  0
LINE
  8
daiko
 10
2.322599
 20
1.970863
 30
0.000000
 11
2.322599
 21
1.462821
 31
0.000000
  0
LINE
  8
daiko
 10
0.590495
 20
0.984264
 30
0.000000
 11
0.590495
 21
2.893125
 31
0.000000
  0
LINE
  8
daiko
 10
2.220058
 20
0.005034
 30
0.000000
 11
0.623751
 21
0.926663
 31
0.000000
  0
LINE
  8
daiko
 10
0.623751
 20
0.965064
 30
0.000000
 11
2.220058
 21
0.043435
 31
0.000000
  0
LINE
  8
daiko
 10
2.220058
 20
0.043435
 30
0.000000
 11
2.220058
 21
2.030065
 31
0.000000
  0
LINE
  8
daiko
 10
2.253315
 20
2.010864
 30
0.000000
 11
2.220058
 21
2.030065
 31
0.000000
  0
LINE
  8
daiko
 10
2.203430
 20
0.065836
 30
0.000000
 11
0.640379
 21
0.968264
 31
0.000000
  0
LINE
  8
daiko
 10
0.640379
 20
0.968264
 30
0.000000
 11
0.640379
 21
2.862607
 31
0.000000
  0
LINE
  8
daiko
 10
0.420632
 20
2.997043
 30
0.000000
 11
0.703856
 21
2.823774
 31
0.000000
  0
LINE
  8
daiko
 10
0.302117
 20
4.153469
 30
0.000000
 11
0.137010
 21
4.248793
 31
0.000000
  0
LINE
  8
daiko
 10
1.963761
 20
3.194118
 30
0.000000
 11
1.798655
 21
3.289442
 31
0.000000
  0
LINE
  8
daiko
 10
1.658362
 20
1.058554
 30
0.000000
 11
1.658362
 21
1.020153
 31
0.000000
  0
LINE
  8
daiko
 10
1.686075
 20
0.972151
 30
0.000000
 11
1.719332
 21
0.952951
 31
0.000000
  0
LINE
  8
daiko
 10
1.719332
 20
0.952951
 30
0.000000
 11
1.719332
 21
0.901749
 31
0.000000
  0
LINE
  8
daiko
 10
1.719332
 20
0.901749
 30
0.000000
 11
1.686075
 21
0.920950
 31
0.000000
  0
LINE
  8
daiko
 10
1.658362
 20
0.904949
 30
0.000000
 11
1.658362
 21
0.866548
 31
0.000000
  0
LINE
  8
daiko
 10
1.658362
 20
0.866548
 30
0.000000
 11
1.614020
 21
0.892149
 31
0.000000
  0
LINE
  8
daiko
 10
1.614020
 20
0.892149
 30
0.000000
 11
1.614020
 21
0.930550
 31
0.000000
  0
LINE
  8
daiko
 10
1.586306
 20
0.978551
 30
0.000000
 11
1.553050
 21
0.997752
 31
0.000000
  0
LINE
  8
daiko
 10
1.553050
 20
0.997752
 30
0.000000
 11
1.553050
 21
1.048954
 31
0.000000
  0
LINE
  8
daiko
 10
1.553050
 20
1.048954
 30
0.000000
 11
1.586306
 21
1.029753
 31
0.000000
  0
LINE
  8
daiko
 10
1.614020
 20
1.045754
 30
0.000000
 11
1.614020
 21
1.084155
 31
0.000000
  0
LINE
  8
daiko
 10
1.614020
 20
1.084155
 30
0.000000
 11
1.658362
 21
1.058554
 31
0.000000
  0
LINE
  8
daiko
 10
1.667285
 20
3.052630
 30
0.000000
 11
1.711627
 21
3.027029
 31
0.000000
  0
LINE
  8
daiko
 10
1.711627
 20
3.027029
 30
0.000000
 11
1.711627
 21
2.988628
 31
0.000000
  0
LINE
  8
daiko
 10
1.739341
 20
2.940626
 30
0.000000
 11
1.772597
 21
2.921426
 31
0.000000
  0
LINE
  8
daiko
 10
1.772597
 20
2.921426
 30
0.000000
 11
1.772597
 21
2.870224
 31
0.000000
  0
LINE
  8
daiko
 10
1.772597
 20
2.870224
 30
0.000000
 11
1.739341
 21
2.889425
 31
0.000000
  0
LINE
  8
daiko
 10
1.711627
 20
2.873424
 30
0.000000
 11
1.711627
 21
2.835023
 31
0.000000
  0
LINE
  8
daiko
 10
1.711627
 20
2.835023
 30
0.000000
 11
1.667285
 21
2.860624
 31
0.000000
  0
LINE
  8
daiko
 10
1.667285
 20
2.860624
 30
0.000000
 11
1.667285
 21
2.899025
 31
0.000000
  0
LINE
  8
daiko
 10
1.639571
 20
2.947027
 30
0.000000
 11
1.606315
 21
2.966227
 31
0.000000
  0
LINE
  8
daiko
 10
1.606315
 20
2.966227
 30
0.000000
 11
1.606315
 21
3.017429
 31
0.000000
  0
LINE
  8
daiko
 10
1.606315
 20
3.017429
 30
0.000000
 11
1.639571
 21
2.998228
 31
0.000000
  0
LINE
  8
daiko
 10
1.667285
 20
3.014229
 30
0.000000
 11
1.667285
 21
3.052630
 31
0.000000
  0
LINE
  8
daiko
 10
0.270516
 20
3.859055
 30
0.000000
 11
0.270516
 21
3.820654
 31
0.000000
  0
LINE
  8
daiko
 10
0.298230
 20
3.772652
 30
0.000000
 11
0.331486
 21
3.753451
 31
0.000000
  0
LINE
  8
daiko
 10
0.331486
 20
3.753451
 30
0.000000
 11
0.331486
 21
3.702250
 31
0.000000
  0
LINE
  8
daiko
 10
0.331486
 20
3.702250
 30
0.000000
 11
0.298230
 21
3.721451
 31
0.000000
  0
LINE
  8
daiko
 10
0.270516
 20
3.705450
 30
0.000000
 11
0.270516
 21
3.667049
 31
0.000000
  0
LINE
  8
daiko
 10
0.270516
 20
3.667049
 30
0.000000
 11
0.226174
 21
3.692650
 31
0.000000
  0
LINE
  8
daiko
 10
0.226174
 20
3.692650
 30
0.000000
 11
0.226174
 21
3.731051
 31
0.000000
  0
LINE
  8
daiko
 10
0.198461
 20
3.779052
 30
0.000000
 11
0.165204
 21
3.798253
 31
0.000000
  0
LINE
  8
daiko
 10
0.165204
 20
3.798253
 30
0.000000
 11
0.165204
 21
3.849454
 31
0.000000
  0
LINE
  8
daiko
 10
0.165204
 20
3.849454
 30
0.000000
 11
0.198461
 21
3.830254
 31
0.000000
  0
LINE
  8
daiko
 10
0.226174
 20
3.846254
 30
0.000000
 11
0.226174
 21
3.884656
 31
0.000000
  0
LINE
  8
daiko
 10
0.226174
 20
3.884656
 30
0.000000
 11
0.270516
 21
3.859055
 31
0.000000
  0
LINE
  8
daiko
 10
0.790904
 20
3.371413
 30
0.000000
 11
0.790904
 21
3.333012
 31
0.000000
  0
LINE
  8
daiko
 10
0.818618
 20
3.285010
 30
0.000000
 11
0.851874
 21
3.265809
 31
0.000000
  0
LINE
  8
daiko
 10
0.851874
 20
3.265809
 30
0.000000
 11
0.851874
 21
3.214608
 31
0.000000
  0
LINE
  8
daiko
 10
0.851874
 20
3.214608
 30
0.000000
 11
0.818618
 21
3.233809
 31
0.000000
  0
LINE
  8
daiko
 10
0.790904
 20
3.217808
 30
0.000000
 11
0.790904
 21
3.179407
 31
0.000000
  0
LINE
  8
daiko
 10
0.790904
 20
3.179407
 30
0.000000
 11
0.746562
 21
3.205008
 31
0.000000
  0
LINE
  8
daiko
 10
0.746562
 20
3.205008
 30
0.000000
 11
0.746562
 21
3.243409
 31
0.000000
  0
LINE
  8
daiko
 10
0.718849
 20
3.291410
 30
0.000000
 11
0.685592
 21
3.310611
 31
0.000000
  0
LINE
  8
daiko
 10
0.685592
 20
3.310611
 30
0.000000
 11
0.685592
 21
3.361812
 31
0.000000
  0
LINE
  8
daiko
 10
0.685592
 20
3.361812
 30
0.000000
 11
0.718849
 21
3.342612
 31
0.000000
  0
LINE
  8
daiko
 10
0.746562
 20
3.358612
 30
0.000000
 11
0.746562
 21
3.397014
 31
0.000000
  0
LINE
  8
daiko
 10
0.746562
 20
3.397014
 30
0.000000
 11
0.790904
 21
3.371413
 31
0.000000
  0
LINE
  8
daiko
 10
0.220632
 20
4.131063
 30
0.000000
 11
0.055525
 21
4.226388
 31
0.000000
  0
LINE
  8
daiko
 10
1.882276
 20
3.171712
 30
0.000000
 11
1.717170
 21
3.267036
 31
0.000000
  0
LINE
  8
daiko
 10
2.220058
 20
2.030065
 30
0.000000
 11
1.765151
 21
2.292706
 31
0.000000
  0
LINE
  8
daiko
 10
2.776558
 20
1.232294
 30
0.000000
 11
2.820900
 21
1.257895
 31
0.000000
  0
LINE
  8
daiko
 10
2.776558
 20
1.193893
 30
0.000000
 11
2.776558
 21
1.232294
 31
0.000000
  0
LINE
  8
daiko
 10
2.715588
 20
1.126690
 30
0.000000
 11
2.748845
 21
1.145891
 31
0.000000
  0
LINE
  8
daiko
 10
2.715588
 20
1.075489
 30
0.000000
 11
2.715588
 21
1.126690
 31
0.000000
  0
LINE
  8
daiko
 10
2.748845
 20
1.094689
 30
0.000000
 11
2.715588
 21
1.075489
 31
0.000000
  0
LINE
  8
daiko
 10
2.776558
 20
1.040288
 30
0.000000
 11
2.776558
 21
1.078689
 31
0.000000
  0
LINE
  8
daiko
 10
2.820900
 20
1.065889
 30
0.000000
 11
2.776558
 21
1.040288
 31
0.000000
  0
LINE
  8
daiko
 10
2.820900
 20
1.104290
 30
0.000000
 11
2.820900
 21
1.065889
 31
0.000000
  0
LINE
  8
daiko
 10
2.881870
 20
1.171492
 30
0.000000
 11
2.848614
 21
1.152291
 31
0.000000
  0
LINE
  8
daiko
 10
2.881870
 20
1.222693
 30
0.000000
 11
2.881870
 21
1.171492
 31
0.000000
  0
LINE
  8
daiko
 10
2.848614
 20
1.203493
 30
0.000000
 11
2.881870
 21
1.222693
 31
0.000000
  0
LINE
  8
daiko
 10
2.820900
 20
1.257895
 30
0.000000
 11
2.820900
 21
1.219493
 31
0.000000
  0
LINE
  8
daiko
 10
0.623751
 20
2.872780
 30
0.000000
 11
0.623751
 21
0.965064
 31
0.000000
  0
LINE
  8
daiko
 10
7.569053
 20
3.419936
 30
0.000000
 11
7.569053
 21
2.826197
 31
0.000000
  0
LINE
  8
daiko
 10
7.479949
 20
3.529871
 30
0.000000
 11
2.276776
 21
2.060353
 31
0.000000
  0
LINE
  8
daiko
 10
7.497203
 20
2.731168
 30
0.000000
 11
2.450066
 21
1.303117
 31
0.000000
  0
LINE
  8
daiko
 10
6.939442
 20
3.807668
 30
0.000000
 11
7.516397
 21
3.511139
 31
0.000000
  0
LINE
  8
daiko
 10
1.639463
 20
2.335583
 30
0.000000
 11
1.573089
 21
2.353130
 31
0.000000
  0
LINE
  8
daiko
 10
49.747097
 20
16.833661
 30
0.000000
 11
49.766986
 21
16.798765
 31
0.000000
  0
LINE
  8
daiko
 10
49.370417
 20
17.051137
 30
0.000000
 11
49.747097
 21
16.833661
 31
0.000000
  0
LINE
  8
daiko
 10
48.450097
 20
17.582484
 30
0.000000
 11
48.826777
 21
17.365007
 31
0.000000
  0
LINE
  8
daiko
 10
44.251338
 20
14.413325
 30
0.000000
 11
49.739175
 21
15.958223
 31
0.000000
  0
LINE
  8
daiko
 10
48.446272
 20
14.707424
 30
0.000000
 11
48.189670
 21
14.634659
 31
0.000000
  0
LINE
  8
daiko
 10
49.720472
 20
13.600511
 30
0.000000
 11
49.720472
 21
14.779977
 31
0.000000
  0
LINE
  8
daiko
 10
49.773128
 20
14.794908
 30
0.000000
 11
45.933619
 21
13.705697
 31
0.000000
  0
LINE
  8
daiko
 10
48.425155
 20
17.577907
 30
0.000000
 11
48.276559
 21
17.663699
 31
0.000000
  0
LINE
  8
daiko
 10
49.920635
 20
16.714491
 30
0.000000
 11
49.772039
 21
16.800283
 31
0.000000
  0
LINE
  8
daiko
 10
49.966421
 20
16.727081
 30
0.000000
 11
49.817825
 21
16.812873
 31
0.000000
  0
LINE
  8
daiko
 10
48.470941
 20
17.590497
 30
0.000000
 11
48.322345
 21
17.676289
 31
0.000000
  0
LINE
  8
daiko
 10
49.720472
 20
15.554526
 30
0.000000
 11
49.131136
 21
15.788286
 31
0.000000
  0
LINE
  8
daiko
 10
49.526078
 20
14.514436
 30
0.000000
 11
49.526078
 21
14.476034
 31
0.000000
  0
LINE
  8
daiko
 10
49.553792
 20
14.460034
 30
0.000000
 11
49.587048
 21
14.479234
 31
0.000000
  0
LINE
  8
daiko
 10
49.587048
 20
14.479234
 30
0.000000
 11
49.587048
 21
14.428033
 31
0.000000
  0
LINE
  8
daiko
 10
49.587048
 20
14.428033
 30
0.000000
 11
49.553792
 21
14.408832
 31
0.000000
  0
LINE
  8
daiko
 10
49.526078
 20
14.360831
 30
0.000000
 11
49.526078
 21
14.322430
 31
0.000000
  0
LINE
  8
daiko
 10
49.526078
 20
14.322430
 30
0.000000
 11
49.481736
 21
14.296829
 31
0.000000
  0
LINE
  8
daiko
 10
49.481736
 20
14.296829
 30
0.000000
 11
49.481736
 21
14.335230
 31
0.000000
  0
LINE
  8
daiko
 10
49.454023
 20
14.351231
 30
0.000000
 11
49.420766
 21
14.332030
 31
0.000000
  0
LINE
  8
daiko
 10
49.420766
 20
14.332030
 30
0.000000
 11
49.420766
 21
14.383232
 31
0.000000
  0
LINE
  8
daiko
 10
49.420766
 20
14.383232
 30
0.000000
 11
49.454023
 21
14.402432
 31
0.000000
  0
LINE
  8
daiko
 10
49.481736
 20
14.450434
 30
0.000000
 11
49.481736
 21
14.488835
 31
0.000000
  0
LINE
  8
daiko
 10
49.481736
 20
14.488835
 30
0.000000
 11
49.526078
 21
14.514436
 31
0.000000
  0
LINE
  8
daiko
 10
49.773128
 20
15.463323
 30
0.000000
 11
49.773128
 21
14.794908
 31
0.000000
  0
LINE
  8
daiko
 10
49.716009
 20
15.556297
 30
0.000000
 11
45.742755
 21
14.433943
 31
0.000000
  0
LINE
  8
daiko
 10
2.244722
 20
0.003435
 30
0.000000
 11
49.714124
 21
13.582242
 31
0.000000
  0
LINE
  8
daiko
 10
44.569099
 20
13.318604
 30
0.000000
 11
8.733277
 21
3.082016
 31
0.000000
  0
LINE
  8
daiko
 10
44.578625
 20
14.105102
 30
0.000000
 11
8.646151
 21
3.859206
 31
0.000000
  0
LINE
  8
daiko
 10
7.657174
 20
4.010090
 30
0.000000
 11
44.251338
 21
14.413325
 31
0.000000
  0
LINE
  8
daiko
 10
1.882276
 20
3.171712
 30
0.000000
 11
49.982288
 21
16.714929
 31
0.000000
  0
LINE
  8
daiko
 10
1.717170
 20
3.267036
 30
0.000000
 11
49.817825
 21
16.812873
 31
0.000000
  0
LINE
  8
daiko
 10
49.633323
 20
16.899348
 30
0.000000
 11
1.726635
 21
3.406443
 31
0.000000
  0
LINE
  8
daiko
 10
1.519283
 20
3.671610
 30
0.000000
 11
49.268954
 21
17.120291
 31
0.000000
  0
LINE
  8
daiko
 10
48.800579
 20
17.380133
 30
0.000000
 11
1.181977
 21
3.968367
 31
0.000000
  0
LINE
  8
daiko
 10
0.617625
 20
4.203150
 30
0.000000
 11
48.486986
 21
17.561186
 31
0.000000
  0
LINE
  8
daiko
 10
0.220632
 20
4.131063
 30
0.000000
 11
48.470941
 21
17.590497
 31
0.000000
  0
LINE
  8
daiko
 10
0.021578
 20
4.232578
 30
0.000000
 11
48.292778
 21
17.682151
 31
0.000000
  0
TEXT
  8
daiko
 10
0.000000
 20
-10.000000
 30
0.000000
 40
4.000000
  1
LZY-92856YT
  7
BIGFONT
  0
TEXT
  8
daiko
 10
0.000000
 20
-14.000000
 30
0.000000
 40
3.000000
  1
LED13.5W       3000K
  7
BIGFONT
  0
TEXT
  8
daiko
 10
0.000000
 20
-18.000000
 30
0.000000
 40
3.000000
  1
演色性 Ra83    ｼﾙﾊﾞｰ
  7
BIGFONT
  0
ENDSEC
  0
EOF
