  0
SECTION
  2
HEADER
  9
$EXTMIN
 10
0.000000
 20
-19.000000
 30
0.000000
  9
$EXTMAX
 10
49.660965
 20
20.444813
 30
0.000000
  0
ENDSEC
  0
SECTION
  2
TABLES
  0
TABLE
  2
LTYPE
 70
    10
  0
LTYPE
  2
ByBlock
 70
     0
  3

 72
    65
 73
     0
 40
0.000000
  0
LTYPE
  2
ByLayer
 70
     0
  3

 72
    65
 73
     0
 40
0.000000
  0
LTYPE
  2
CENTER_DASH_DASH
 70
     0
  3
Center_Dash_Dash
 72
    65
 73
     6
 40
22.000000
 49
12.000000
 49
-3.000000
 49
0.500000
 49
-3.000000
 49
0.500000
 49
-3.000000
  0
LTYPE
  2
CONTINUOUS
 70
     0
  3
Solid line
 72
    65
 73
     0
 40
0.000000
  0
LTYPE
  2
DASHED
 70
     0
  3
Dashed
 72
    65
 73
     2
 40
15.000000
 49
12.000000
 49
-3.000000
  0
LTYPE
  2
DASH_CENTER
 70
     0
  3
Dash_Center
 72
    65
 73
     4
 40
36.000000
 49
24.000000
 49
-3.000000
 49
6.000000
 49
-3.000000
  0
LTYPE
  2
DOTTED
 70
     0
  3
Dotted
 72
    65
 73
     2
 40
3.500000
 49
0.500000
 49
-3.000000
  0
LTYPE
  2
DOT_CENTER
 70
     0
  3
Dot_Center
 72
    65
 73
     4
 40
2.000000
 49
1.250000
 49
-0.250000
 49
0.250000
 49
-0.250000
  0
LTYPE
  2
LONG_DASHED
 70
     0
  3
Long_Dashed
 72
    65
 73
     2
 40
2.000000
 49
1.500000
 49
-0.500000
  0
LTYPE
  2
PHANTOM
 70
     0
  3
Phantom
 72
    65
 73
     6
 40
2.500000
 49
1.250000
 49
-0.250000
 49
0.250000
 49
-0.250000
 49
0.250000
 49
-0.250000
  0
ENDTAB
  0
TABLE
  2
STYLE
 70
     2
  0
STYLE
  2
BIGFONT
 70
     0
 40
1.000000
 41
1.000000
 50
0.000000
 71
     0
 42
0.000000
  3
txt
  4
bigfont
  0
STYLE
  2
STANDARD
 70
     0
 40
0.000000
 41
1.000000
 50
0.000000
 71
     0
 42
0.000000
  3
txt
  4

  0
ENDTAB
  0
TABLE
  2
LAYER
 70
     1
  0
LAYER
  2
daiko
 70
     0
 62
     7
  6
CONTINUOUS
  0
ENDTAB
  0
ENDSEC
  0
SECTION
  2
BLOCKS
  0
BLOCK
  8
daiko
  2
01
 70
     0
 10
0.000000
 20
-11.000000
 30
0.000000
  3
01
  1

  0
ARC
  8
daiko
 10
1.723707
 20
3.319785
 30
0.000000
 40
0.112693
 50
188.896113
 51
267.480113
  0
ARC
  8
daiko
 10
3.492295
 20
3.382669
 30
0.000000
 40
0.112693
 50
8.896113
 51
105.963384
  0
ARC
  8
daiko
 10
2.710839
 20
3.276343
 30
0.000000
 40
0.112693
 50
188.896113
 51
285.963384
  0
ARC
  8
daiko
 10
4.464783
 20
2.744916
 30
0.000000
 40
0.273843
 50
180.000000
 51
285.815809
  0
ARC
  8
daiko
 10
39.543114
 20
12.623484
 30
0.000000
 40
0.182562
 50
285.815809
 51
0.000000
  0
ARC
  8
daiko
 10
40.026250
 20
13.861990
 30
0.000000
 40
0.273843
 50
239.574266
 51
285.773781
  0
ARC
  8
daiko
 10
40.021974
 20
13.868791
 30
0.000000
 40
0.182562
 50
240.000000
 51
285.773781
  0
ARC
  8
daiko
 10
4.567233
 20
2.773904
 30
0.000000
 40
0.273843
 50
180.000000
 51
285.815809
  0
ARC
  8
daiko
 10
13.808279
 20
5.293943
 30
0.000000
 40
0.182562
 50
285.815809
 51
0.000000
  0
ARC
  8
daiko
 10
14.291415
 20
6.532449
 30
0.000000
 40
0.273843
 50
239.574266
 51
285.773781
  0
ARC
  8
daiko
 10
14.287139
 20
6.539249
 30
0.000000
 40
0.182562
 50
240.000000
 51
285.773781
  0
ARC
  8
daiko
 10
41.320412
 20
14.261621
 30
0.000000
 40
0.207646
 50
286.449345
 51
332.500682
  0
ARC
  8
daiko
 10
41.356691
 20
14.244316
 30
0.000000
 40
0.280104
 50
285.765061
 51
335.487720
  0
ARC
  8
daiko
 10
42.062132
 20
13.472504
 30
0.000000
 40
0.313313
 50
186.805033
 51
279.718877
  0
ARC
  8
daiko
 10
42.060686
 20
13.355232
 30
0.000000
 40
0.199102
 50
203.142771
 51
285.837839
  0
ARC
  8
daiko
 10
1.214053
 20
4.359542
 30
0.000000
 40
0.270807
 50
177.158545
 51
243.164144
  0
ARC
  8
daiko
 10
1.361755
 20
4.319269
 30
0.000000
 40
0.319644
 50
177.592959
 51
212.376470
  0
ARC
  8
daiko
 10
17.539993
 20
6.696618
 30
0.000000
 40
0.246538
 50
194.830798
 51
16.832502
  0
ARC
  8
daiko
 10
9.223988
 20
4.338464
 30
0.000000
 40
0.246538
 50
194.830798
 51
16.832502
  0
ARC
  8
daiko
 10
38.207387
 20
12.585714
 30
0.000000
 40
0.246538
 50
194.830798
 51
16.832502
  0
ARC
  8
daiko
 10
46.523392
 20
14.943869
 30
0.000000
 40
0.246538
 50
194.830798
 51
16.832502
  0
ARC
  8
daiko
 10
47.187100
 20
19.064669
 30
0.000000
 40
1.340248
 50
54.514418
 51
110.381489
  0
ARC
  8
daiko
 10
46.147941
 20
17.133067
 30
0.000000
 40
3.527056
 50
29.757743
 51
58.988575
  0
ARC
  8
daiko
 10
1.077398
 20
6.351314
 30
0.000000
 40
1.489164
 50
54.514418
 51
110.381489
  0
ARC
  8
daiko
 10
-0.077224
 20
4.205089
 30
0.000000
 40
3.918951
 50
29.757743
 51
58.988575
  0
ARC
  8
daiko
 10
46.232571
 20
17.156337
 30
0.000000
 40
3.527056
 50
29.757743
 51
58.988575
  0
ARC
  8
daiko
 10
47.271731
 20
19.087939
 30
0.000000
 40
1.340248
 50
54.514418
 51
110.381489
  0
ARC
  8
daiko
 10
0.926782
 20
6.309899
 30
0.000000
 40
1.489164
 50
54.514418
 51
110.381489
  0
ARC
  8
daiko
 10
-0.227839
 20
4.163675
 30
0.000000
 40
3.918951
 50
29.757743
 51
58.988575
  0
ARC
  8
daiko
 10
48.439339
 20
14.615306
 30
0.000000
 40
0.443779
 50
263.150027
 51
28.032903
  0
ARC
  8
daiko
 10
4.898520
 20
2.351883
 30
0.000000
 40
0.443779
 50
263.150027
 51
28.032903
  0
ARC
  8
daiko
 10
5.020533
 20
2.282304
 30
0.000000
 40
0.112082
 50
302.804007
 51
357.195993
  0
ARC
  8
daiko
 10
5.245325
 20
2.318482
 30
0.000000
 40
0.031397
 50
169.617127
 51
310.382873
  0
ARC
  8
daiko
 10
5.327467
 20
2.105096
 30
0.000000
 40
0.113190
 50
123.091934
 51
176.908066
  0
ARC
  8
daiko
 10
5.101849
 20
2.069976
 30
0.000000
 40
0.031232
 50
348.746457
 51
131.253543
  0
ARC
  8
daiko
 10
4.980419
 20
2.078160
 30
0.000000
 40
0.214547
 50
176.370537
 51
231.065346
  0
ARC
  8
daiko
 10
5.384915
 20
2.060371
 30
0.000000
 40
0.619408
 50
123.669105
 51
177.096997
  0
ARC
  8
daiko
 10
5.177666
 20
2.376863
 30
0.000000
 40
0.241127
 50
89.023963
 51
124.376684
  0
ARC
  8
daiko
 10
5.177736
 20
2.479305
 30
0.000000
 40
0.138708
 50
35.802843
 51
88.332173
  0
ARC
  8
daiko
 10
4.080388
 20
3.708282
 30
0.000000
 40
0.213054
 50
1.257920
 51
58.742080
  0
ARC
  8
daiko
 10
3.176385
 20
4.174429
 30
0.000000
 40
0.159076
 50
57.004563
 51
98.908730
  0
ARC
  8
daiko
 10
3.094336
 20
4.130031
 30
0.000000
 40
0.340785
 50
59.804328
 51
68.618306
  0
ARC
  8
daiko
 10
3.079838
 20
4.547739
 30
0.000000
 40
0.167988
 50
252.989403
 51
307.250662
  0
ARC
  8
daiko
 10
2.949367
 20
4.619860
 30
0.000000
 40
0.205068
 50
235.044373
 51
302.264207
  0
ARC
  8
daiko
 10
2.712112
 20
4.523370
 30
0.000000
 40
0.148751
 50
235.473658
 51
280.439636
  0
ARC
  8
daiko
 10
2.750146
 20
4.461361
 30
0.000000
 40
0.216947
 50
234.796620
 51
281.116673
  0
ARC
  8
daiko
 10
2.839942
 20
1.737682
 30
0.000000
 40
1.012802
 50
328.063570
 51
11.727599
  0
ARC
  8
daiko
 10
3.440589
 20
1.377819
 30
0.000000
 40
0.312955
 50
265.139125
 51
325.804374
  0
ARC
  8
daiko
 10
2.632019
 20
1.732178
 30
0.000000
 40
1.104404
 50
334.611707
 51
10.858995
  0
ARC
  8
daiko
 10
3.328056
 20
1.379346
 30
0.000000
 40
0.324948
 50
264.279618
 51
338.198759
  0
ARC
  8
daiko
 10
3.416202
 20
1.578498
 30
0.000000
 40
0.536205
 50
215.358251
 51
257.009243
  0
ARC
  8
daiko
 10
4.054082
 20
2.025503
 30
0.000000
 40
1.315111
 50
188.668319
 51
215.158786
  0
ARC
  8
daiko
 10
3.799464
 20
1.968435
 30
0.000000
 40
0.986878
 50
162.418797
 51
193.522177
  0
ARC
  8
daiko
 10
3.546839
 20
1.839341
 30
0.000000
 40
0.714170
 50
188.183591
 51
234.663281
  0
ARC
  8
daiko
 10
3.271423
 20
1.447256
 30
0.000000
 40
0.234555
 50
235.741413
 51
309.209560
  0
ARC
  8
daiko
 10
2.914976
 20
1.711871
 30
0.000000
 40
0.673781
 50
318.511763
 51
1.639102
  0
ARC
  8
daiko
 10
2.537710
 20
1.741912
 30
0.000000
 40
1.050825
 50
359.412857
 51
29.811031
  0
ARC
  8
daiko
 10
3.054140
 20
2.079078
 30
0.000000
 40
0.436587
 50
25.106090
 51
74.344430
  0
ARC
  8
daiko
 10
3.127001
 20
2.276315
 30
0.000000
 40
0.227636
 50
78.610229
 51
128.281670
  0
ARC
  8
daiko
 10
3.260734
 20
2.132215
 30
0.000000
 40
0.423894
 50
130.404678
 51
161.526952
  0
ARC
  8
daiko
 10
3.361892
 20
5.746663
 30
0.000000
 40
0.220001
 50
0.914586
 51
57.682646
  0
ARC
  8
daiko
 10
3.512987
 20
5.788347
 30
0.000000
 40
0.219518
 50
0.846391
 51
57.750842
  0
ARC
  8
daiko
 10
1.812962
 20
5.755079
 30
0.000000
 40
1.919866
 50
317.066394
 51
1.089679
  0
ARC
  8
daiko
 10
1.775486
 20
5.718087
 30
0.000000
 40
1.806665
 50
315.262841
 51
1.017693
  0
ARC
  8
daiko
 10
3.200337
 20
5.331170
 30
0.000000
 40
0.205255
 50
306.922806
 51
4.900762
  0
ARC
  8
daiko
 10
3.244438
 20
5.319286
 30
0.000000
 40
0.171580
 50
250.276592
 51
297.490936
  0
ARC
  8
daiko
 10
3.388567
 20
5.643331
 30
0.000000
 40
0.525913
 50
209.093487
 51
247.408533
  0
ARC
  8
daiko
 10
3.360280
 20
5.675641
 30
0.000000
 40
0.518609
 50
177.539194
 51
213.737340
  0
ARC
  8
daiko
 10
3.010147
 20
5.711128
 30
0.000000
 40
0.168516
 50
114.717076
 51
184.499671
  0
ARC
  8
daiko
 10
2.994171
 20
5.597751
 30
0.000000
 40
0.271969
 50
49.152417
 51
101.556962
  0
ARC
  8
daiko
 10
2.769718
 20
5.307777
 30
0.000000
 40
0.638433
 50
7.857358
 51
50.935802
  0
ARC
  8
daiko
 10
2.995152
 20
5.348231
 30
0.000000
 40
0.409689
 50
0.066163
 51
6.562831
  0
ARC
  8
daiko
 10
3.194759
 20
5.387252
 30
0.000000
 40
0.031262
 50
48.906717
 51
191.093283
  0
ARC
  8
daiko
 10
2.969410
 20
5.422634
 30
0.000000
 40
0.112866
 50
3.008281
 51
56.991719
  0
ARC
  8
daiko
 10
3.275922
 20
5.599598
 30
0.000000
 40
0.111972
 50
182.775041
 51
237.224959
  0
ARC
  8
daiko
 10
3.051112
 20
5.636055
 30
0.000000
 40
0.031482
 50
230.045395
 51
9.954605
  0
ARC
  8
daiko
 10
0.971579
 20
6.607679
 30
0.000000
 40
1.204913
 50
7.543672
 51
38.565466
  0
ARC
  8
daiko
 10
1.598357
 20
7.172988
 30
0.000000
 40
0.366029
 50
30.512807
 51
104.617187
  0
ARC
  8
daiko
 10
1.360116
 20
6.951445
 30
0.000000
 40
0.593917
 50
28.326140
 51
75.782343
  0
ARC
  8
daiko
 10
0.711680
 20
6.549393
 30
0.000000
 40
1.356268
 50
8.735019
 51
30.279693
  0
ARC
  8
daiko
 10
1.479032
 20
7.223766
 30
0.000000
 40
0.304598
 50
84.923335
 51
134.640165
  0
ARC
  8
daiko
 10
1.986440
 20
6.863581
 30
0.000000
 40
0.923743
 50
141.351325
 51
193.852213
  0
ARC
  8
daiko
 10
1.574620
 20
6.236466
 30
0.000000
 40
0.112533
 50
182.921880
 51
237.078120
  0
ARC
  8
daiko
 10
1.269578
 20
6.060350
 30
0.000000
 40
0.110797
 50
2.462164
 51
57.537836
  0
ARC
  8
daiko
 10
1.348191
 20
6.274468
 30
0.000000
 40
0.032281
 50
233.628815
 51
6.371185
  0
ARC
  8
daiko
 10
1.492861
 20
6.023891
 30
0.000000
 40
0.031229
 50
48.732546
 51
191.267454
  0
ARC
  8
daiko
 10
1.386100
 20
6.255828
 30
0.000000
 40
0.545154
 50
19.685134
 51
73.384022
  0
ARC
  8
daiko
 10
1.004391
 20
6.032709
 30
0.000000
 40
0.983097
 50
337.945243
 51
24.440529
  0
ARC
  8
daiko
 10
1.637838
 20
5.784773
 30
0.000000
 40
0.303011
 50
284.485453
 51
336.420815
  0
ARC
  8
daiko
 10
1.679054
 20
5.767907
 30
0.000000
 40
0.278667
 50
231.034657
 51
277.127854
  0
ARC
  8
daiko
 10
2.051648
 20
6.167483
 30
0.000000
 40
0.824550
 50
193.191082
 51
228.363350
  0
ARC
  8
daiko
 10
2.121507
 20
6.246150
 30
0.000000
 40
0.912534
 50
161.132460
 51
197.001961
  0
ARC
  8
daiko
 10
1.534460
 20
6.498593
 30
0.000000
 40
0.279727
 50
88.457453
 51
171.229097
  0
ARC
  8
daiko
 10
0.205778
 20
7.846378
 30
0.000000
 40
0.090691
 50
58.185741
 51
93.879468
  0
ARC
  8
daiko
 10
0.059477
 20
7.821287
 30
0.000000
 40
0.074709
 50
54.395484
 51
104.933788
  0
ARC
  8
daiko
 10
0.056587
 20
7.844079
 30
0.000000
 40
0.052034
 50
108.327643
 51
156.428876
  0
ARC
  8
daiko
 10
0.097265
 20
7.825075
 30
0.000000
 40
0.096925
 50
155.748511
 51
184.297608
  0
ARC
  8
daiko
 10
4.487768
 20
8.026647
 30
0.000000
 40
4.492011
 50
182.664662
 51
208.669824
  0
ARC
  8
daiko
 10
0.386338
 20
7.175777
 30
0.000000
 40
0.032264
 50
233.555853
 51
6.444147
  0
ARC
  8
daiko
 10
0.612475
 20
7.137659
 30
0.000000
 40
0.112256
 50
182.849587
 51
237.150413
  0
ARC
  8
daiko
 10
0.305739
 20
6.960565
 30
0.000000
 40
0.112812
 50
2.994479
 51
57.005521
  0
ARC
  8
daiko
 10
0.531377
 20
6.924562
 30
0.000000
 40
0.031489
 50
50.081072
 51
189.918928
  0
ARC
  8
daiko
 10
0.359165
 20
7.239245
 30
0.000000
 40
0.183570
 50
120.074715
 51
188.557134
  0
ARC
  8
daiko
 10
0.339619
 20
7.196730
 30
0.000000
 40
0.214008
 50
57.828761
 51
109.786885
  0
ARC
  8
daiko
 10
0.117818
 20
6.849754
 30
0.000000
 40
0.625814
 50
6.369917
 51
57.554236
  0
ARC
  8
daiko
 10
0.499199
 20
6.880747
 30
0.000000
 40
0.243621
 50
321.512745
 51
9.078292
  0
ARC
  8
daiko
 10
0.579928
 20
6.844640
 30
0.000000
 40
0.159481
 50
249.363613
 51
313.591671
  0
ARC
  8
daiko
 10
0.777299
 20
7.239498
 30
0.000000
 40
0.600294
 50
182.632098
 51
245.012458
  0
ARC
  8
daiko
 10
15.160311
 20
5.641023
 30
0.000000
 40
0.431672
 50
46.581357
 51
136.148804
  0
ARC
  8
daiko
 10
15.270750
 20
5.501027
 30
0.000000
 40
0.608793
 50
133.847448
 51
194.236041
  0
ARC
  8
daiko
 10
15.075100
 20
5.433644
 30
0.000000
 40
0.403019
 50
191.620679
 51
262.483538
  0
ARC
  8
daiko
 10
15.043861
 20
5.548970
 30
0.000000
 40
0.515330
 50
267.611114
 51
326.274892
  0
ARC
  8
daiko
 10
14.919568
 20
5.634141
 30
0.000000
 40
0.727069
 50
285.489719
 51
330.831830
  0
ARC
  8
daiko
 10
14.975699
 20
5.449148
 30
0.000000
 40
0.533934
 50
238.191734
 51
285.767795
  0
ARC
  8
daiko
 10
15.065420
 20
5.530227
 30
0.000000
 40
0.650989
 50
184.795470
 51
235.240972
  0
ARC
  8
daiko
 10
15.243851
 20
5.560476
 30
0.000000
 40
0.831464
 50
125.275353
 51
185.844794
  0
ARC
  8
daiko
 10
15.102706
 20
5.806675
 30
0.000000
 40
0.549620
 50
32.046507
 51
128.086174
  0
ARC
  8
daiko
 10
15.932592
 20
6.993053
 30
0.000000
 40
0.210369
 50
2.441483
 51
57.558517
  0
ARC
  8
daiko
 10
15.524592
 20
9.361865
 30
0.000000
 40
2.786782
 50
226.774838
 51
262.629450
  0
ARC
  8
daiko
 10
15.215610
 20
8.776722
 30
0.000000
 40
1.674311
 50
230.637579
 51
266.601076
  0
ARC
  8
daiko
 10
13.761179
 20
6.373601
 30
0.000000
 40
0.230351
 50
4.431259
 51
73.619227
  0
ARC
  8
daiko
 10
49.012263
 20
16.408157
 30
0.000000
 40
0.199685
 50
1.232196
 51
61.897698
  0
ARC
  8
daiko
 10
47.688489
 20
18.597032
 30
0.000000
 40
1.888532
 50
317.497838
 51
358.904250
  0
ARC
  8
daiko
 10
47.827819
 20
18.598425
 30
0.000000
 40
1.833541
 50
316.846998
 51
359.555090
  0
ARC
  8
daiko
 10
48.786457
 20
14.582448
 30
0.000000
 40
0.031613
 50
170.685510
 51
309.314490
  0
ARC
  8
daiko
 10
48.562373
 20
14.545138
 30
0.000000
 40
0.111035
 50
302.526052
 51
357.473948
  0
ARC
  8
daiko
 10
48.642460
 20
14.333038
 30
0.000000
 40
0.031368
 50
349.467804
 51
130.532196
  0
ARC
  8
daiko
 10
48.866364
 20
14.369628
 30
0.000000
 40
0.111216
 50
122.574525
 51
177.425475
  0
ARC
  8
daiko
 10
49.071524
 20
12.965299
 30
0.000000
 40
0.043231
 50
316.416891
 51
5.260403
  0
ARC
  8
daiko
 10
41.667426
 20
14.321935
 30
0.000000
 40
0.210400
 50
2.620811
 51
63.216804
  0
ARC
  8
daiko
 10
39.513830
 20
13.711016
 30
0.000000
 40
0.212078
 50
2.682088
 51
57.317912
  0
ARC
  8
daiko
 10
48.496467
 20
14.325646
 30
0.000000
 40
0.186812
 50
186.463518
 51
233.904449
  0
ARC
  8
daiko
 10
48.905657
 20
14.336350
 30
0.000000
 40
0.595661
 50
142.508142
 51
183.053911
  0
ARC
  8
daiko
 10
48.810708
 20
14.445637
 30
0.000000
 40
0.454728
 50
111.531055
 51
146.154713
  0
ARC
  8
daiko
 10
48.710924
 20
14.735353
 30
0.000000
 40
0.149220
 50
36.385584
 51
116.724157
  0
ARC
  8
daiko
 10
15.235616
 20
6.090250
 30
0.000000
 40
1.022089
 50
54.970317
 51
96.701348
  0
ARC
  8
daiko
 10
15.033772
 20
6.116311
 30
0.000000
 40
1.131061
 50
11.335293
 51
45.800860
  0
ARC
  8
daiko
 10
15.417916
 20
6.048512
 30
0.000000
 40
0.780755
 50
280.070612
 51
21.812803
  0
ARC
  8
daiko
 10
15.229471
 20
6.682814
 30
0.000000
 40
1.440171
 50
247.599470
 51
283.040865
  0
ARC
  8
daiko
 10
15.151960
 20
6.383881
 30
0.000000
 40
0.526654
 50
235.937883
 51
305.395872
  0
ARC
  8
daiko
 10
15.260583
 20
6.222193
 30
0.000000
 40
0.331973
 50
306.277429
 51
74.888026
  0
ARC
  8
daiko
 10
14.951687
 20
5.578245
 30
0.000000
 40
1.042362
 50
67.705228
 51
78.074122
  0
ARC
  8
daiko
 10
1.078517
 20
6.108504
 30
0.000000
 40
0.582415
 50
204.006564
 51
238.917206
  0
ARC
  8
daiko
 10
4.128572
 20
0.107528
 30
0.000000
 40
0.037476
 50
228.738333
 51
11.261667
  0
ARC
  8
daiko
 10
1.227288
 20
1.896592
 30
0.000000
 40
0.135680
 50
183.060217
 51
236.939783
  0
ARC
  8
daiko
 10
3.176057
 20
1.960291
 30
0.000000
 40
0.110527
 50
182.388974
 51
237.611026
  0
ARC
  8
daiko
 10
3.096325
 20
1.748721
 30
0.000000
 40
0.031276
 50
48.981865
 51
191.018135
  0
ARC
  8
daiko
 10
2.873258
 20
1.785582
 30
0.000000
 40
0.110408
 50
0.222105
 51
57.586247
  0
ARC
  8
daiko
 10
2.952454
 20
1.997914
 30
0.000000
 40
0.031624
 50
230.738874
 51
9.261126
  0
ARC
  8
daiko
 10
49.376527
 20
18.556537
 30
0.000000
 40
0.200196
 50
1.253459
 51
57.343774
  0
ARC
  8
daiko
 10
49.463783
 20
18.581282
 30
0.000000
 40
0.197543
 50
0.842809
 51
57.754423
  0
ARC
  8
daiko
 10
48.975015
 20
20.173423
 30
0.000000
 40
0.969511
 50
218.263934
 51
238.437039
  0
ARC
  8
daiko
 10
47.698927
 20
19.255548
 30
0.000000
 40
0.604872
 50
31.658715
 51
88.341285
  0
ARC
  8
daiko
 10
47.694822
 20
20.290576
 30
0.000000
 40
0.430952
 50
237.407342
 51
272.874753
  0
ARC
  8
daiko
 10
46.489029
 20
20.437933
 30
0.000000
 40
0.076932
 50
57.555729
 51
100.014261
  0
ARC
  8
daiko
 10
46.402248
 20
20.407945
 30
0.000000
 40
0.083794
 50
58.244755
 51
96.348246
  0
LINE
  8
daiko
 10
49.163787
 20
18.945358
 30
0.000000
 11
49.200550
 21
18.880858
 31
0.000000
  0
LINE
  8
daiko
 10
48.467539
 20
19.347337
 30
0.000000
 11
49.163787
 21
18.945358
 31
0.000000
  0
LINE
  8
daiko
 10
46.766436
 20
20.329469
 30
0.000000
 11
47.462684
 21
19.927490
 31
0.000000
  0
LINE
  8
daiko
 10
49.163787
 20
18.945358
 30
0.000000
 11
3.191354
 21
6.367165
 31
0.000000
  0
LINE
  8
daiko
 10
47.716435
 20
19.860166
 30
0.000000
 11
2.187587
 21
7.403340
 31
0.000000
  0
LINE
  8
daiko
 10
1.118006
 20
7.839924
 30
0.000000
 11
46.766436
 21
20.329469
 31
0.000000
  0
LINE
  8
daiko
 10
2.809792
 20
6.855243
 30
0.000000
 11
48.467539
 21
19.347337
 31
0.000000
  0
LINE
  8
daiko
 10
2.498115
 20
4.644484
 30
0.000000
 11
2.831876
 21
4.451787
 31
0.000000
  0
LINE
  8
daiko
 10
2.627803
 20
4.400819
 30
0.000000
 11
2.527160
 21
4.458925
 31
0.000000
  0
LINE
  8
daiko
 10
2.543713
 20
4.331068
 30
0.000000
 11
2.625080
 21
4.284091
 31
0.000000
  0
LINE
  8
daiko
 10
2.791975
 20
4.248484
 30
0.000000
 11
3.151750
 21
4.331586
 31
0.000000
  0
LINE
  8
daiko
 10
2.914934
 20
4.417704
 30
0.000000
 11
2.739066
 21
4.377082
 31
0.000000
  0
LINE
  8
daiko
 10
2.705885
 20
3.163759
 30
0.000000
 11
1.718752
 21
3.207202
 31
0.000000
  0
LINE
  8
daiko
 10
2.669869
 20
3.547198
 30
0.000000
 11
3.499353
 21
3.495140
 31
0.000000
  0
LINE
  8
daiko
 10
2.712204
 20
3.276733
 30
0.000000
 11
3.461302
 21
3.491015
 31
0.000000
  0
LINE
  8
daiko
 10
2.741832
 20
3.167996
 30
0.000000
 11
3.490930
 21
3.382278
 31
0.000000
  0
LINE
  8
daiko
 10
2.543684
 20
3.170898
 30
0.000000
 11
2.753993
 21
1.827297
 31
0.000000
  0
LINE
  8
daiko
 10
3.716647
 20
1.940240
 30
0.000000
 11
3.490930
 21
3.382278
 31
0.000000
  0
LINE
  8
daiko
 10
3.830494
 20
1.950740
 30
0.000000
 11
3.603631
 21
3.400096
 31
0.000000
  0
LINE
  8
daiko
 10
41.751026
 20
13.435379
 30
0.000000
 11
41.751026
 21
14.369685
 31
0.000000
  0
LINE
  8
daiko
 10
41.379210
 20
14.062473
 30
0.000000
 11
40.071602
 21
13.693104
 31
0.000000
  0
LINE
  8
daiko
 10
41.432793
 20
13.974748
 30
0.000000
 11
40.100692
 21
13.598460
 31
0.000000
  0
LINE
  8
daiko
 10
41.751026
 20
14.369685
 30
0.000000
 11
41.716563
 21
14.532879
 31
0.000000
  0
LINE
  8
daiko
 10
39.887570
 20
13.625859
 30
0.000000
 11
39.725676
 21
13.720940
 31
0.000000
  0
LINE
  8
daiko
 10
41.751026
 20
14.369685
 30
0.000000
 11
41.611549
 21
14.128104
 31
0.000000
  0
LINE
  8
daiko
 10
39.930693
 20
13.710687
 30
0.000000
 11
39.560977
 21
13.924143
 31
0.000000
  0
LINE
  8
daiko
 10
41.716563
 20
14.532879
 30
0.000000
 11
41.504597
 21
14.165743
 31
0.000000
  0
LINE
  8
daiko
 10
41.877606
 20
14.331556
 30
0.000000
 11
41.877606
 21
13.276980
 31
0.000000
  0
LINE
  8
daiko
 10
39.725676
 20
13.720940
 30
0.000000
 11
39.725676
 21
12.623484
 31
0.000000
  0
LINE
  8
daiko
 10
40.834088
 20
14.986418
 30
0.000000
 11
41.780277
 21
14.500133
 31
0.000000
  0
LINE
  8
daiko
 10
38.676118
 20
14.378921
 30
0.000000
 11
39.628347
 21
13.889518
 31
0.000000
  0
LINE
  8
daiko
 10
39.005527
 20
14.471654
 30
0.000000
 11
49.124201
 21
17.320193
 31
0.000000
  0
LINE
  8
daiko
 10
0.943579
 20
4.372967
 30
0.000000
 11
0.943579
 21
5.508330
 31
0.000000
  0
LINE
  8
daiko
 10
3.265736
 20
4.424577
 30
0.000000
 11
14.153723
 21
7.482229
 31
0.000000
  0
LINE
  8
daiko
 10
3.265736
 20
4.424577
 30
0.000000
 11
4.190940
 21
3.890410
 31
0.000000
  0
LINE
  8
daiko
 10
4.190940
 20
2.744916
 30
0.000000
 11
4.190940
 21
3.772110
 31
0.000000
  0
LINE
  8
daiko
 10
4.165327
 20
3.786897
 30
0.000000
 11
4.165327
 21
0.114847
 31
0.000000
  0
LINE
  8
daiko
 10
2.712204
 20
3.276733
 30
0.000000
 11
2.166064
 21
6.765862
 31
0.000000
  0
LINE
  8
daiko
 10
1.042393
 20
5.447878
 30
0.000000
 11
1.042393
 21
4.305844
 31
0.000000
  0
LINE
  8
daiko
 10
2.599503
 20
3.258916
 30
0.000000
 11
2.052217
 21
6.755362
 31
0.000000
  0
LINE
  8
daiko
 10
1.089562
 20
6.642419
 30
0.000000
 11
1.612370
 21
3.302358
 31
0.000000
  0
LINE
  8
daiko
 10
17.775967
 20
6.768009
 30
0.000000
 11
17.301668
 21
6.633513
 31
0.000000
  0
LINE
  8
daiko
 10
9.459963
 20
4.409855
 30
0.000000
 11
8.985663
 21
4.275359
 31
0.000000
  0
LINE
  8
daiko
 10
38.443362
 20
12.657105
 30
0.000000
 11
37.969062
 21
12.522609
 31
0.000000
  0
LINE
  8
daiko
 10
46.759367
 20
15.015260
 30
0.000000
 11
46.285067
 21
14.880764
 31
0.000000
  0
LINE
  8
daiko
 10
49.114574
 20
12.969263
 30
0.000000
 11
49.114574
 21
15.149365
 31
0.000000
  0
LINE
  8
daiko
 10
16.016192
 20
6.677665
 30
0.000000
 11
16.016192
 21
7.040144
 31
0.000000
  0
LINE
  8
daiko
 10
15.116344
 20
7.105356
 30
0.000000
 11
14.361744
 21
7.541025
 31
0.000000
  0
LINE
  8
daiko
 10
15.167087
 20
6.598109
 30
0.000000
 11
14.336767
 21
6.363562
 31
0.000000
  0
LINE
  8
daiko
 10
15.342360
 20
6.544759
 30
0.000000
 11
14.365857
 21
6.268918
 31
0.000000
  0
LINE
  8
daiko
 10
16.016192
 20
7.040144
 30
0.000000
 11
15.981729
 21
7.203337
 31
0.000000
  0
LINE
  8
daiko
 10
14.152736
 20
6.296318
 30
0.000000
 11
13.990841
 21
6.391399
 31
0.000000
  0
LINE
  8
daiko
 10
16.016192
 20
7.040144
 30
0.000000
 11
15.903025
 21
6.844134
 31
0.000000
  0
LINE
  8
daiko
 10
14.195858
 20
6.381146
 30
0.000000
 11
13.826142
 21
6.594602
 31
0.000000
  0
LINE
  8
daiko
 10
15.981729
 20
7.203337
 30
0.000000
 11
15.822296
 21
6.927192
 31
0.000000
  0
LINE
  8
daiko
 10
49.211902
 20
15.176965
 30
0.000000
 11
42.115024
 21
13.163688
 31
0.000000
  0
LINE
  8
daiko
 10
14.979269
 20
7.718541
 30
0.000000
 11
16.045442
 21
7.170592
 31
0.000000
  0
LINE
  8
daiko
 10
16.142771
 20
7.002015
 30
0.000000
 11
16.142771
 21
6.338621
 31
0.000000
  0
LINE
  8
daiko
 10
4.190940
 20
3.772110
 30
0.000000
 11
4.165327
 21
3.786897
 31
0.000000
  0
LINE
  8
daiko
 10
4.293391
 20
3.712960
 30
0.000000
 11
4.293391
 21
2.773904
 31
0.000000
  0
LINE
  8
daiko
 10
4.149444
 20
0.076402
 30
0.000000
 11
49.102840
 21
12.935495
 31
0.000000
  0
LINE
  8
daiko
 10
1.091801
 20
1.889348
 30
0.000000
 11
1.091801
 21
5.417652
 31
0.000000
  0
LINE
  8
daiko
 10
4.103857
 20
0.079357
 30
0.000000
 11
1.153271
 21
1.782878
 31
0.000000
  0
LINE
  8
daiko
 10
1.153271
 20
1.853858
 30
0.000000
 11
4.103857
 21
0.150337
 31
0.000000
  0
LINE
  8
daiko
 10
4.103857
 20
0.150337
 30
0.000000
 11
4.103857
 21
3.822387
 31
0.000000
  0
LINE
  8
daiko
 10
4.165327
 20
3.786897
 30
0.000000
 11
4.103857
 21
3.822387
 31
0.000000
  0
LINE
  8
daiko
 10
4.073121
 20
0.191742
 30
0.000000
 11
1.184006
 21
1.859773
 31
0.000000
  0
LINE
  8
daiko
 10
1.184006
 20
1.859773
 30
0.000000
 11
1.184006
 21
5.361243
 31
0.000000
  0
LINE
  8
daiko
 10
0.777830
 20
5.609731
 30
0.000000
 11
1.301336
 21
5.289464
 31
0.000000
  0
LINE
  8
daiko
 10
46.720333
 20
20.321010
 30
0.000000
 11
46.445671
 21
20.479586
 31
0.000000
  0
LINE
  8
daiko
 10
49.484552
 20
18.725087
 30
0.000000
 11
49.209890
 21
18.883664
 31
0.000000
  0
LINE
  8
daiko
 10
0.558768
 20
7.747248
 30
0.000000
 11
0.253588
 21
7.923444
 31
0.000000
  0
LINE
  8
daiko
 10
3.630122
 20
5.974001
 30
0.000000
 11
3.324942
 21
6.150197
 31
0.000000
  0
LINE
  8
daiko
 10
3.065626
 20
2.026664
 30
0.000000
 11
3.065626
 21
1.955683
 31
0.000000
  0
LINE
  8
daiko
 10
3.116852
 20
1.866958
 30
0.000000
 11
3.178322
 21
1.831468
 31
0.000000
  0
LINE
  8
daiko
 10
3.178322
 20
1.831468
 30
0.000000
 11
3.178322
 21
1.736828
 31
0.000000
  0
LINE
  8
daiko
 10
3.178322
 20
1.736828
 30
0.000000
 11
3.116852
 21
1.772318
 31
0.000000
  0
LINE
  8
daiko
 10
3.065626
 20
1.742743
 30
0.000000
 11
3.065626
 21
1.671763
 31
0.000000
  0
LINE
  8
daiko
 10
3.065626
 20
1.671763
 30
0.000000
 11
2.983666
 21
1.719083
 31
0.000000
  0
LINE
  8
daiko
 10
2.983666
 20
1.719083
 30
0.000000
 11
2.983666
 21
1.790063
 31
0.000000
  0
LINE
  8
daiko
 10
2.932440
 20
1.878788
 30
0.000000
 11
2.870970
 21
1.914278
 31
0.000000
  0
LINE
  8
daiko
 10
2.870970
 20
1.914278
 30
0.000000
 11
2.870970
 21
2.008919
 31
0.000000
  0
LINE
  8
daiko
 10
2.870970
 20
2.008919
 30
0.000000
 11
2.932440
 21
1.973428
 31
0.000000
  0
LINE
  8
daiko
 10
2.983666
 20
2.003004
 30
0.000000
 11
2.983666
 21
2.073984
 31
0.000000
  0
LINE
  8
daiko
 10
2.983666
 20
2.073984
 30
0.000000
 11
3.065626
 21
2.026664
 31
0.000000
  0
LINE
  8
daiko
 10
3.082120
 20
5.712477
 30
0.000000
 11
3.164081
 21
5.665157
 31
0.000000
  0
LINE
  8
daiko
 10
3.164081
 20
5.665157
 30
0.000000
 11
3.164081
 21
5.594177
 31
0.000000
  0
LINE
  8
daiko
 10
3.215307
 20
5.505452
 30
0.000000
 11
3.276777
 21
5.469962
 31
0.000000
  0
LINE
  8
daiko
 10
3.276777
 20
5.469962
 30
0.000000
 11
3.276777
 21
5.375322
 31
0.000000
  0
LINE
  8
daiko
 10
3.276777
 20
5.375322
 30
0.000000
 11
3.215307
 21
5.410812
 31
0.000000
  0
LINE
  8
daiko
 10
3.164081
 20
5.381237
 30
0.000000
 11
3.164081
 21
5.310257
 31
0.000000
  0
LINE
  8
daiko
 10
3.164081
 20
5.310257
 30
0.000000
 11
3.082120
 21
5.357577
 31
0.000000
  0
LINE
  8
daiko
 10
3.082120
 20
5.357577
 30
0.000000
 11
3.082120
 21
5.428557
 31
0.000000
  0
LINE
  8
daiko
 10
3.030895
 20
5.517282
 30
0.000000
 11
2.969424
 21
5.552772
 31
0.000000
  0
LINE
  8
daiko
 10
2.969424
 20
5.552772
 30
0.000000
 11
2.969424
 21
5.647412
 31
0.000000
  0
LINE
  8
daiko
 10
2.969424
 20
5.647412
 30
0.000000
 11
3.030895
 21
5.611922
 31
0.000000
  0
LINE
  8
daiko
 10
3.082120
 20
5.641497
 30
0.000000
 11
3.082120
 21
5.712477
 31
0.000000
  0
LINE
  8
daiko
 10
0.500358
 20
7.203058
 30
0.000000
 11
0.500358
 21
7.132078
 31
0.000000
  0
LINE
  8
daiko
 10
0.551584
 20
7.043353
 30
0.000000
 11
0.613054
 21
7.007863
 31
0.000000
  0
LINE
  8
daiko
 10
0.613054
 20
7.007863
 30
0.000000
 11
0.613054
 21
6.913223
 31
0.000000
  0
LINE
  8
daiko
 10
0.613054
 20
6.913223
 30
0.000000
 11
0.551584
 21
6.948713
 31
0.000000
  0
LINE
  8
daiko
 10
0.500358
 20
6.919138
 30
0.000000
 11
0.500358
 21
6.848158
 31
0.000000
  0
LINE
  8
daiko
 10
0.500358
 20
6.848158
 30
0.000000
 11
0.418398
 21
6.895478
 31
0.000000
  0
LINE
  8
daiko
 10
0.418398
 20
6.895478
 30
0.000000
 11
0.418398
 21
6.966458
 31
0.000000
  0
LINE
  8
daiko
 10
0.367172
 20
7.055183
 30
0.000000
 11
0.305702
 21
7.090673
 31
0.000000
  0
LINE
  8
daiko
 10
0.305702
 20
7.090673
 30
0.000000
 11
0.305702
 21
7.185313
 31
0.000000
  0
LINE
  8
daiko
 10
0.305702
 20
7.185313
 30
0.000000
 11
0.367172
 21
7.149823
 31
0.000000
  0
LINE
  8
daiko
 10
0.418398
 20
7.179398
 30
0.000000
 11
0.418398
 21
7.250378
 31
0.000000
  0
LINE
  8
daiko
 10
0.418398
 20
7.250378
 30
0.000000
 11
0.500358
 21
7.203058
 31
0.000000
  0
LINE
  8
daiko
 10
1.462234
 20
6.301710
 30
0.000000
 11
1.462234
 21
6.230730
 31
0.000000
  0
LINE
  8
daiko
 10
1.513459
 20
6.142005
 30
0.000000
 11
1.574930
 21
6.106515
 31
0.000000
  0
LINE
  8
daiko
 10
1.574930
 20
6.106515
 30
0.000000
 11
1.574930
 21
6.011875
 31
0.000000
  0
LINE
  8
daiko
 10
1.574930
 20
6.011875
 30
0.000000
 11
1.513459
 21
6.047365
 31
0.000000
  0
LINE
  8
daiko
 10
1.462234
 20
6.017790
 30
0.000000
 11
1.462234
 21
5.946810
 31
0.000000
  0
LINE
  8
daiko
 10
1.462234
 20
5.946810
 30
0.000000
 11
1.380273
 21
5.994130
 31
0.000000
  0
LINE
  8
daiko
 10
1.380273
 20
5.994130
 30
0.000000
 11
1.380273
 21
6.065110
 31
0.000000
  0
LINE
  8
daiko
 10
1.329048
 20
6.153835
 30
0.000000
 11
1.267577
 21
6.189325
 31
0.000000
  0
LINE
  8
daiko
 10
1.267577
 20
6.189325
 30
0.000000
 11
1.267577
 21
6.283965
 31
0.000000
  0
LINE
  8
daiko
 10
1.267577
 20
6.283965
 30
0.000000
 11
1.329048
 21
6.248475
 31
0.000000
  0
LINE
  8
daiko
 10
1.380273
 20
6.278050
 30
0.000000
 11
1.380273
 21
6.349030
 31
0.000000
  0
LINE
  8
daiko
 10
1.380273
 20
6.349030
 30
0.000000
 11
1.462234
 21
6.301710
 31
0.000000
  0
LINE
  8
daiko
 10
0.408152
 20
7.705834
 30
0.000000
 11
46.804964
 21
20.344280
 31
0.000000
  0
LINE
  8
daiko
 10
0.040225
 20
7.893473
 30
0.000000
 11
46.475651
 21
20.513692
 31
0.000000
  0
LINE
  8
daiko
 10
3.174326
 20
6.108783
 30
0.000000
 11
49.294520
 21
18.906934
 31
0.000000
  0
LINE
  8
daiko
 10
49.569182
 20
18.748358
 30
0.000000
 11
49.294520
 21
18.906934
 31
0.000000
  0
LINE
  8
daiko
 10
46.804964
 20
20.344280
 30
0.000000
 11
46.530301
 21
20.502856
 31
0.000000
  0
LINE
  8
daiko
 10
0.408152
 20
7.705834
 30
0.000000
 11
0.102972
 21
7.882030
 31
0.000000
  0
LINE
  8
daiko
 10
3.479507
 20
5.932587
 30
0.000000
 11
3.174326
 21
6.108783
 31
0.000000
  0
LINE
  8
daiko
 10
4.103857
 20
3.822387
 30
0.000000
 11
3.263014
 21
4.307848
 31
0.000000
  0
LINE
  8
daiko
 10
49.114574
 20
16.581029
 30
0.000000
 11
48.025256
 21
17.013106
 31
0.000000
  0
LINE
  8
daiko
 10
48.755261
 20
14.658544
 30
0.000000
 11
48.755261
 21
14.587564
 31
0.000000
  0
LINE
  8
daiko
 10
48.806486
 20
14.557989
 30
0.000000
 11
48.867957
 21
14.593479
 31
0.000000
  0
LINE
  8
daiko
 10
48.867957
 20
14.593479
 30
0.000000
 11
48.867957
 21
14.498839
 31
0.000000
  0
LINE
  8
daiko
 10
48.867957
 20
14.498839
 30
0.000000
 11
48.806486
 21
14.463349
 31
0.000000
  0
LINE
  8
daiko
 10
48.755261
 20
14.374624
 30
0.000000
 11
48.755261
 21
14.303644
 31
0.000000
  0
LINE
  8
daiko
 10
48.755261
 20
14.303644
 30
0.000000
 11
48.673300
 21
14.256324
 31
0.000000
  0
LINE
  8
daiko
 10
48.673300
 20
14.256324
 30
0.000000
 11
48.673300
 21
14.327304
 31
0.000000
  0
LINE
  8
daiko
 10
48.622074
 20
14.356879
 30
0.000000
 11
48.560604
 21
14.321389
 31
0.000000
  0
LINE
  8
daiko
 10
48.560604
 20
14.321389
 30
0.000000
 11
48.560604
 21
14.416029
 31
0.000000
  0
LINE
  8
daiko
 10
48.560604
 20
14.416029
 30
0.000000
 11
48.622074
 21
14.451519
 31
0.000000
  0
LINE
  8
daiko
 10
48.673300
 20
14.540244
 30
0.000000
 11
48.673300
 21
14.611224
 31
0.000000
  0
LINE
  8
daiko
 10
48.673300
 20
14.611224
 30
0.000000
 11
48.755261
 21
14.658544
 31
0.000000
  0
LINE
  8
daiko
 10
5.132481
 20
2.347801
 30
0.000000
 11
5.214441
 21
2.395121
 31
0.000000
  0
LINE
  8
daiko
 10
5.132481
 20
2.276821
 30
0.000000
 11
5.132481
 21
2.347801
 31
0.000000
  0
LINE
  8
daiko
 10
5.019785
 20
2.152606
 30
0.000000
 11
5.081255
 21
2.188096
 31
0.000000
  0
LINE
  8
daiko
 10
5.019785
 20
2.057966
 30
0.000000
 11
5.019785
 21
2.152606
 31
0.000000
  0
LINE
  8
daiko
 10
5.081255
 20
2.093456
 30
0.000000
 11
5.019785
 21
2.057966
 31
0.000000
  0
LINE
  8
daiko
 10
5.132481
 20
1.992901
 30
0.000000
 11
5.132481
 21
2.063881
 31
0.000000
  0
LINE
  8
daiko
 10
5.214441
 20
2.040221
 30
0.000000
 11
5.132481
 21
1.992901
 31
0.000000
  0
LINE
  8
daiko
 10
5.214441
 20
2.111201
 30
0.000000
 11
5.214441
 21
2.040221
 31
0.000000
  0
LINE
  8
daiko
 10
5.327137
 20
2.235416
 30
0.000000
 11
5.265667
 21
2.199926
 31
0.000000
  0
LINE
  8
daiko
 10
5.327137
 20
2.330056
 30
0.000000
 11
5.327137
 21
2.235416
 31
0.000000
  0
LINE
  8
daiko
 10
5.265667
 20
2.294566
 30
0.000000
 11
5.327137
 21
2.330056
 31
0.000000
  0
LINE
  8
daiko
 10
5.214441
 20
2.395121
 30
0.000000
 11
5.214441
 21
2.324141
 31
0.000000
  0
LINE
  8
daiko
 10
49.211902
 20
16.412451
 30
0.000000
 11
49.211902
 21
15.176965
 31
0.000000
  0
LINE
  8
daiko
 10
49.106324
 20
16.584301
 30
0.000000
 11
41.762235
 21
14.509763
 31
0.000000
  0
LINE
  8
daiko
 10
1.153271
 20
5.380046
 30
0.000000
 11
1.153271
 21
1.853858
 31
0.000000
  0
LINE
  8
daiko
 10
13.990841
 20
6.391399
 30
0.000000
 11
13.990841
 21
5.293943
 31
0.000000
  0
LINE
  8
daiko
 10
13.826142
 20
6.594602
 30
0.000000
 11
4.208692
 21
3.878371
 31
0.000000
  0
LINE
  8
daiko
 10
13.858035
 20
5.118292
 30
0.000000
 11
4.528998
 21
2.478709
 31
0.000000
  0
LINE
  8
daiko
 10
14.153723
 20
7.482229
 30
0.000000
 11
39.005527
 21
14.471654
 31
0.000000
  0
LINE
  8
daiko
 10
39.592870
 20
12.448191
 30
0.000000
 11
16.142771
 21
5.766794
 31
0.000000
  0
LINE
  8
daiko
 10
39.610478
 20
13.901940
 30
0.000000
 11
15.981729
 21
7.203337
 31
0.000000
  0
LINE
  8
daiko
 10
3.479507
 20
5.932587
 30
0.000000
 11
49.598510
 21
18.725896
 31
0.000000
  0
LINE
  8
daiko
 10
12.827080
 20
7.108075
 30
0.000000
 11
13.893513
 21
6.559976
 31
0.000000
  0
LINE
  8
daiko
 10
3.030694
 20
4.387101
 30
0.000000
 11
2.908009
 21
4.419535
 31
0.000000
  0
ENDBLK
  0
ENDSEC
  0
SECTION
  2
ENTITIES
  0
INSERT
  8
daiko
  2
01
 10
-0.000340
 20
-11.070052
 30
0.000000
  0
TEXT
  8
daiko
 10
0.000000
 20
-10.000000
 30
0.000000
 40
4.000000
  1
LZY-92854NT
  7
BIGFONT
  0
TEXT
  8
daiko
 10
0.000000
 20
-14.000000
 30
0.000000
 40
3.000000
  1
LED7W          4000K
  7
BIGFONT
  0
TEXT
  8
daiko
 10
0.000000
 20
-18.000000
 30
0.000000
 40
3.000000
  1
演色性 Ra83    ｼﾙﾊﾞｰ
  7
BIGFONT
  0
ENDSEC
  0
EOF
