  0
SECTION
  2
HEADER
  9
$EXTMIN
 10
0.000000
 20
-23.000000
 30
0.000000
  9
$EXTMAX
 10
47.157737
 20
16.011362
 30
0.000000
  0
ENDSEC
  0
SECTION
  2
TABLES
  0
TABLE
  2
LTYPE
 70
     1
  0
LTYPE
  2
CONTINUOUS
 70
     0
  3
Solid line
 72
    65
 73
     0
 40
0.000000
  0
ENDTAB
  0
TABLE
  2
STYLE
 70
     2
  0
STYLE
  2
BIGFONT
 70
     0
 40
1.000000
 41
1.000000
 50
0.000000
 71
     0
 42
0.000000
  3
txt
  4
bigfont
  0
STYLE
  2
STANDARD
 70
     0
 40
0.000000
 41
1.000000
 50
0.000000
 71
     0
 42
3.500000
  3
txt.shx
  4
bigfont.shx
  0
ENDTAB
  0
TABLE
  2
LAYER
 70
     1
  0
LAYER
  2
daiko
 70
     0
 62
     7
  6
CONTINUOUS
  0
ENDTAB
  0
ENDSEC
  0
SECTION
  2
ENTITIES
  0
LINE
  8
daiko
 10
0.166534
 20
3.103887
 30
0.000000
 11
0.042481
 21
3.175509
 31
0.000000
  0
ARC
  8
daiko
 10
1.761017
 20
3.224413
 30
0.000000
 40
1.761741
 50
182.440157
 51
211.712122
  0
LINE
  8
daiko
 10
0.316805
 20
2.251831
 30
0.000000
 11
0.529606
 21
2.121653
 31
0.000000
  0
LINE
  8
daiko
 10
1.016086
 20
1.859475
 30
0.000000
 11
1.151757
 21
1.781145
 31
0.000000
  0
ARC
  8
daiko
 10
1.199517
 20
1.837293
 30
0.000000
 40
0.073713
 50
229.614377
 51
320.118112
  0
ARC
  8
daiko
 10
0.723704
 20
2.293976
 30
0.000000
 40
0.733069
 50
316.571412
 51
1.168776
  0
ARC
  8
daiko
 10
1.365158
 20
2.306353
 30
0.000000
 40
0.091500
 50
1.613040
 51
56.984192
  0
LINE
  8
daiko
 10
1.415013
 20
2.383077
 30
0.000000
 11
1.290960
 21
2.454699
 31
0.000000
  0
ARC
  8
daiko
 10
-0.091991
 20
1.664030
 30
0.000000
 40
1.593019
 50
29.757743
 51
58.988575
  0
ARC
  8
daiko
 10
0.377353
 20
2.536452
 30
0.000000
 40
0.605332
 50
54.514418
 51
110.381489
  0
ARC
  8
daiko
 10
-0.030767
 20
1.680865
 30
0.000000
 40
1.593019
 50
29.757743
 51
58.988575
  0
ARC
  8
daiko
 10
0.438577
 20
2.553286
 30
0.000000
 40
0.605332
 50
54.514418
 51
99.935932
  0
ARC
  8
daiko
 10
0.447623
 20
2.608936
 30
0.000000
 40
0.552389
 50
101.856526
 51
108.618699
  0
LINE
  8
daiko
 10
0.103705
 20
3.192344
 30
0.000000
 11
0.225019
 21
3.122303
 31
0.000000
  0
LINE
  8
daiko
 10
1.352184
 20
2.471534
 30
0.000000
 11
1.476237
 21
2.399912
 31
0.000000
  0
ARC
  8
daiko
 10
1.425969
 20
2.323074
 30
0.000000
 40
0.091915
 50
1.676759
 51
56.874486
  0
ARC
  8
daiko
 10
0.740029
 20
2.309985
 30
0.000000
 40
0.777976
 50
316.993952
 51
1.162121
  0
ARC
  8
daiko
 10
1.257721
 20
1.814101
 30
0.000000
 40
0.061904
 50
265.118285
 51
325.844977
  0
ARC
  8
daiko
 10
1.266584
 20
1.950607
 30
0.000000
 40
0.198689
 50
250.272554
 51
265.921602
  0
ARC
  8
daiko
 10
0.380841
 20
2.382055
 30
0.000000
 40
0.145117
 50
215.230317
 51
243.814965
  0
LINE
  8
daiko
 10
1.693793
 20
0.018217
 30
0.000000
 11
1.704204
 21
1.504862
 31
0.000000
  0
LINE
  8
daiko
 10
1.704204
 20
1.504862
 30
0.000000
 11
1.327011
 21
1.722635
 31
0.000000
  0
LINE
  8
daiko
 10
1.281783
 20
1.732284
 30
0.000000
 11
1.135538
 21
1.698504
 31
0.000000
  0
LINE
  8
daiko
 10
1.067696
 20
1.712978
 30
0.000000
 11
1.036167
 21
1.731181
 31
0.000000
  0
LINE
  8
daiko
 10
1.068803
 20
1.760427
 30
0.000000
 11
1.027892
 21
1.784047
 31
0.000000
  0
LINE
  8
daiko
 10
1.114030
 20
1.750778
 30
0.000000
 11
1.180387
 21
1.766105
 31
0.000000
  0
ARC
  8
daiko
 10
1.103977
 20
1.814478
 30
0.000000
 40
0.064488
 50
236.945083
 51
278.968210
  0
ARC
  8
daiko
 10
1.120458
 20
1.794054
 30
0.000000
 40
0.096732
 50
236.945076
 51
278.968217
  0
ARC
  8
daiko
 10
1.291836
 20
1.668585
 30
0.000000
 40
0.064488
 50
56.945083
 51
98.968210
  0
LINE
  8
daiko
 10
1.308948
 20
1.779346
 30
0.000000
 11
1.711420
 21
1.548057
 31
0.000000
  0
LINE
  8
daiko
 10
1.745850
 20
1.480818
 30
0.000000
 11
1.745850
 21
1.099100
 31
0.000000
  0
ARC
  8
daiko
 10
1.652314
 20
1.475357
 30
0.000000
 40
0.093696
 50
3.341489
 51
50.887950
  0
ARC
  8
daiko
 10
1.857165
 20
1.099100
 30
0.000000
 40
0.111315
 50
180.000000
 51
283.561910
  0
ARC
  8
daiko
 10
1.815519
 20
1.087317
 30
0.000000
 40
0.111315
 50
180.000000
 51
270.000000
  0
ARC
  8
daiko
 10
1.802594
 20
1.196014
 30
0.000000
 40
0.220391
 50
273.362001
 51
291.418076
  0
LINE
  8
daiko
 10
1.668806
 20
0.003791
 30
0.000000
 11
0.469419
 21
0.696257
 31
0.000000
  0
LINE
  8
daiko
 10
0.444431
 20
0.739536
 30
0.000000
 11
0.444431
 21
2.173757
 31
0.000000
  0
LINE
  8
daiko
 10
0.384181
 20
2.210621
 30
0.000000
 11
0.384181
 21
1.749106
 31
0.000000
  0
LINE
  8
daiko
 10
0.424348
 20
2.186043
 30
0.000000
 11
0.424348
 21
1.732735
 31
0.000000
  0
ARC
  8
daiko
 10
0.499581
 20
0.742524
 30
0.000000
 40
0.055230
 50
183.101069
 51
236.898931
  0
ARC
  8
daiko
 10
0.494126
 20
1.743649
 30
0.000000
 40
0.110080
 50
177.158545
 51
243.164144
  0
ARC
  8
daiko
 10
0.554166
 20
1.727278
 30
0.000000
 40
0.129932
 50
177.592959
 51
212.376470
  0
ARC
  8
daiko
 10
0.025698
 20
3.156047
 30
0.000000
 40
0.025698
 50
49.226727
 51
194.979895
  0
ARC
  8
daiko
 10
0.084637
 20
3.162510
 30
0.000000
 40
0.035407
 50
57.415088
 51
94.390401
  0
LINE
  8
daiko
 10
45.862482
 20
16.010837
 30
0.000000
 11
0.016570
 21
3.180431
 31
0.000000
  0
LINE
  8
daiko
 10
0.334129
 20
3.149539
 30
0.000000
 11
46.024517
 21
15.951572
 31
0.000000
  0
LINE
  8
daiko
 10
1.290960
 20
2.454699
 30
0.000000
 11
47.008328
 21
15.357704
 31
0.000000
  0
LINE
  8
daiko
 10
47.131897
 20
15.284114
 30
0.000000
 11
1.415013
 21
2.383077
 31
0.000000
  0
LINE
  8
daiko
 10
1.328117
 20
1.770084
 30
0.000000
 11
46.939095
 21
14.712708
 31
0.000000
  0
LINE
  8
daiko
 10
1.883075
 20
0.990843
 30
0.000000
 11
5.633794
 21
2.052074
 31
0.000000
  0
LINE
  8
daiko
 10
5.687779
 20
2.123474
 30
0.000000
 11
5.687779
 21
2.569580
 31
0.000000
  0
LINE
  8
daiko
 10
5.620830
 20
2.652181
 30
0.000000
 11
5.199617
 21
2.868666
 31
0.000000
  0
LINE
  8
daiko
 10
6.497057
 20
2.899626
 30
0.000000
 11
6.074339
 21
3.116878
 31
0.000000
  0
LINE
  8
daiko
 10
6.562519
 20
2.817790
 30
0.000000
 11
6.562519
 21
2.564683
 31
0.000000
  0
LINE
  8
daiko
 10
6.511066
 20
2.833290
 30
0.000000
 11
6.511066
 21
2.688537
 31
0.000000
  0
LINE
  8
daiko
 10
6.511066
 20
2.833290
 30
0.000000
 11
6.463955
 21
2.751692
 31
0.000000
  0
LINE
  8
daiko
 10
6.497057
 20
2.899626
 30
0.000000
 11
6.435729
 21
2.780296
 31
0.000000
  0
ARC
  8
daiko
 10
6.471257
 20
2.811888
 30
0.000000
 40
0.091453
 50
3.700322
 51
73.613734
  0
ARC
  8
daiko
 10
5.595807
 20
2.563467
 30
0.000000
 40
0.092175
 50
3.802736
 51
74.247750
  0
ARC
  8
daiko
 10
5.613569
 20
2.123474
 30
0.000000
 40
0.074210
 50
285.815789
 51
0.000000
  0
LINE
  8
daiko
 10
5.798247
 20
2.549749
 30
0.000000
 11
6.165913
 21
2.653606
 31
0.000000
  0
LINE
  8
daiko
 10
5.794528
 20
2.506887
 30
0.000000
 11
6.237160
 21
2.631920
 31
0.000000
  0
LINE
  8
daiko
 10
5.798247
 20
2.549749
 30
0.000000
 11
5.660123
 21
2.629495
 31
0.000000
  0
LINE
  8
daiko
 10
5.794528
 20
2.506887
 30
0.000000
 11
5.687779
 21
2.569580
 31
0.000000
  0
LINE
  8
daiko
 10
1.735712
 20
1.518061
 30
0.000000
 11
5.676191
 21
2.608574
 31
0.000000
  0
ARC
  8
daiko
 10
1.678860
 20
0.015229
 30
0.000000
 40
0.015229
 50
228.685764
 51
11.314236
  0
LINE
  8
daiko
 10
1.686475
 20
0.002040
 30
0.000000
 11
46.935181
 21
12.931731
 31
0.000000
  0
LINE
  8
daiko
 10
46.935181
 20
12.931731
 30
0.000000
 11
46.935181
 21
13.830281
 31
0.000000
  0
LINE
  8
daiko
 10
46.974744
 20
13.841504
 30
0.000000
 11
44.089925
 21
13.023125
 31
0.000000
  0
LINE
  8
daiko
 10
43.993417
 20
13.069177
 30
0.000000
 11
43.993417
 21
13.497853
 31
0.000000
  0
LINE
  8
daiko
 10
43.941964
 20
13.133565
 30
0.000000
 11
43.941964
 21
13.513352
 31
0.000000
  0
LINE
  8
daiko
 10
43.941964
 20
13.513352
 30
0.000000
 11
43.856423
 21
13.365191
 31
0.000000
  0
LINE
  8
daiko
 10
43.856423
 20
13.365191
 30
0.000000
 11
43.225426
 21
13.186949
 31
0.000000
  0
LINE
  8
daiko
 10
43.229144
 20
13.229812
 30
0.000000
 11
43.822766
 21
13.397496
 31
0.000000
  0
LINE
  8
daiko
 10
43.927955
 20
13.579689
 30
0.000000
 11
43.822766
 21
13.397496
 31
0.000000
  0
LINE
  8
daiko
 10
43.229144
 20
13.229812
 30
0.000000
 11
43.090016
 21
13.310138
 31
0.000000
  0
LINE
  8
daiko
 10
42.703966
 20
13.510943
 30
0.000000
 11
43.068838
 21
13.322364
 31
0.000000
  0
LINE
  8
daiko
 10
43.118676
 20
13.249643
 30
0.000000
 11
43.118676
 21
12.803537
 31
0.000000
  0
LINE
  8
daiko
 10
43.064692
 20
12.732136
 30
0.000000
 11
6.555584
 21
2.313708
 31
0.000000
  0
LINE
  8
daiko
 10
6.542673
 20
2.869015
 30
0.000000
 11
43.107088
 21
13.288636
 31
0.000000
  0
ARC
  8
daiko
 10
43.038317
 20
13.248009
 30
0.000000
 40
0.080376
 50
1.165034
 51
67.682758
  0
ARC
  8
daiko
 10
43.044466
 20
12.803537
 30
0.000000
 40
0.074210
 50
285.815809
 51
0.000000
  0
LINE
  8
daiko
 10
43.225426
 20
13.186949
 30
0.000000
 11
43.118676
 21
13.249643
 31
0.000000
  0
LINE
  8
daiko
 10
43.941964
 20
13.513352
 30
0.000000
 11
43.927955
 21
13.579689
 31
0.000000
  0
ARC
  8
daiko
 10
43.902155
 20
13.491951
 30
0.000000
 40
0.091453
 50
3.700322
 51
73.613734
  0
LINE
  8
daiko
 10
43.927955
 20
13.579689
 30
0.000000
 11
43.578733
 21
13.759168
 31
0.000000
  0
LINE
  8
daiko
 10
43.973570
 20
13.549077
 30
0.000000
 11
46.963157
 21
14.382712
 31
0.000000
  0
LINE
  8
daiko
 10
46.493749
 20
14.587337
 30
0.000000
 11
46.931828
 21
14.413574
 31
0.000000
  0
LINE
  8
daiko
 10
46.974744
 20
14.343719
 30
0.000000
 11
46.974744
 21
13.841504
 31
0.000000
  0
ARC
  8
daiko
 10
46.894275
 20
14.342393
 30
0.000000
 40
0.080480
 50
0.944191
 51
62.185703
  0
ARC
  8
daiko
 10
44.068425
 20
13.148656
 30
0.000000
 40
0.127359
 50
186.805033
 51
279.718877
  0
ARC
  8
daiko
 10
44.053350
 20
13.087085
 30
0.000000
 40
0.062551
 50
196.635853
 51
250.997223
  0
ARC
  8
daiko
 10
46.491792
 20
15.206066
 30
0.000000
 40
0.665945
 50
312.196974
 51
1.759228
  0
ARC
  8
daiko
 10
46.429733
 20
15.201626
 30
0.000000
 40
0.693460
 50
314.357235
 51
1.274567
  0
ARC
  8
daiko
 10
47.073316
 20
15.223698
 30
0.000000
 40
0.084153
 50
1.915328
 51
45.883552
  0
ARC
  8
daiko
 10
47.038745
 20
15.214192
 30
0.000000
 40
0.084325
 50
1.943382
 51
45.751758
  0
LINE
  8
daiko
 10
47.131897
 20
15.284114
 30
0.000000
 11
47.008328
 21
15.357704
 31
0.000000
  0
LINE
  8
daiko
 10
46.974028
 20
15.348186
 30
0.000000
 11
47.097584
 21
15.274595
 31
0.000000
  0
ARC
  8
daiko
 10
45.763672
 20
14.646102
 30
0.000000
 40
1.433717
 50
29.757743
 51
58.988575
  0
ARC
  8
daiko
 10
45.728699
 20
14.635919
 30
0.000000
 40
1.434632
 50
29.767435
 51
58.983892
  0
ARC
  8
daiko
 10
46.186082
 20
15.431281
 30
0.000000
 40
0.544799
 50
54.514418
 51
107.251009
  0
ARC
  8
daiko
 10
46.151680
 20
15.421822
 30
0.000000
 40
0.544799
 50
54.514418
 51
103.498103
  0
LINE
  8
daiko
 10
45.850296
 20
15.996973
 30
0.000000
 11
45.959581
 21
15.933877
 31
0.000000
  0
LINE
  8
daiko
 10
45.994083
 20
15.943279
 30
0.000000
 11
45.884697
 21
16.006433
 31
0.000000
  0
ARC
  8
daiko
 10
45.868104
 20
15.980970
 30
0.000000
 40
0.030392
 50
56.909734
 51
100.660256
  0
ARC
  8
daiko
 10
45.833499
 20
15.971118
 30
0.000000
 40
0.030832
 50
56.991011
 51
97.963614
  0
ARC
  8
daiko
 10
6.099684
 20
2.188996
 30
0.000000
 40
0.222394
 50
228.835943
 51
280.072572
  0
ARC
  8
daiko
 10
6.092711
 20
2.228249
 30
0.000000
 40
0.262262
 50
280.072572
 51
303.633092
  0
ARC
  8
daiko
 10
6.073010
 20
2.257865
 30
0.000000
 40
0.297832
 50
303.633092
 51
324.766710
  0
ARC
  8
daiko
 10
6.036381
 20
2.283735
 30
0.000000
 40
0.342676
 50
324.766710
 51
330.968462
  0
ARC
  8
daiko
 10
6.113273
 20
2.302161
 30
0.000000
 40
0.262262
 50
35.546981
 51
48.835943
  0
ARC
  8
daiko
 10
6.139514
 20
2.332175
 30
0.000000
 40
0.222394
 50
48.835943
 51
100.072572
  0
ARC
  8
daiko
 10
6.146487
 20
2.292922
 30
0.000000
 40
0.262262
 50
100.072572
 51
123.633092
  0
ARC
  8
daiko
 10
6.166188
 20
2.263306
 30
0.000000
 40
0.297832
 50
123.633092
 51
144.766710
  0
ARC
  8
daiko
 10
6.202817
 20
2.237435
 30
0.000000
 40
0.342676
 50
144.766710
 51
184.141805
  0
ARC
  8
daiko
 10
6.158090
 20
2.234197
 30
0.000000
 40
0.297832
 50
184.141805
 51
205.275423
  0
ARC
  8
daiko
 10
6.125926
 20
2.219009
 30
0.000000
 40
0.262262
 50
205.275423
 51
228.835943
  0
ARC
  8
daiko
 10
6.130895
 20
2.172007
 30
0.000000
 40
0.155326
 50
228.855680
 51
280.559274
  0
ARC
  8
daiko
 10
6.125363
 20
2.201680
 30
0.000000
 40
0.185510
 50
280.559274
 51
304.181378
  0
ARC
  8
daiko
 10
6.110164
 20
2.224061
 30
0.000000
 40
0.212565
 50
304.181378
 51
325.208512
  0
ARC
  8
daiko
 10
6.082049
 20
2.243595
 30
0.000000
 40
0.246800
 50
325.208512
 51
326.142634
  0
ARC
  8
daiko
 10
6.140665
 20
2.257640
 30
0.000000
 40
0.185510
 50
43.733824
 51
48.855680
  0
ARC
  8
daiko
 10
6.160525
 20
2.280371
 30
0.000000
 40
0.155326
 50
48.855680
 51
100.559274
  0
ARC
  8
daiko
 10
6.166056
 20
2.250698
 30
0.000000
 40
0.185510
 50
100.559274
 51
124.181378
  0
ARC
  8
daiko
 10
6.181256
 20
2.228316
 30
0.000000
 40
0.212565
 50
124.181378
 51
145.208512
  0
ARC
  8
daiko
 10
6.209371
 20
2.208782
 30
0.000000
 40
0.246800
 50
145.208512
 51
184.206442
  0
ARC
  8
daiko
 10
6.175228
 20
2.206271
 30
0.000000
 40
0.212565
 50
184.206442
 51
205.233576
  0
ARC
  8
daiko
 10
6.150755
 20
2.194737
 30
0.000000
 40
0.185510
 50
205.233576
 51
228.855680
  0
ARC
  8
daiko
 10
6.288346
 20
3.709664
 30
0.000000
 40
1.068432
 50
224.466391
 51
253.507122
  0
ARC
  8
daiko
 10
5.831317
 20
1.334399
 30
0.000000
 40
1.359511
 50
72.631204
 51
83.508294
  0
ARC
  8
daiko
 10
6.194718
 20
2.501860
 30
0.000000
 40
0.136809
 50
359.595369
 51
71.927153
  0
ARC
  8
daiko
 10
6.207699
 20
2.490527
 30
0.000000
 40
0.124258
 50
286.723702
 51
4.785737
  0
ARC
  8
daiko
 10
6.185495
 20
2.696629
 30
0.000000
 40
0.330230
 50
257.844257
 51
280.108558
  0
ARC
  8
daiko
 10
5.666339
 20
0.411743
 30
0.000000
 40
2.012917
 50
77.093128
 51
79.233612
  0
ARC
  8
daiko
 10
6.295921
 20
3.231691
 30
0.000000
 40
1.132498
 50
253.335888
 51
263.906821
  0
ARC
  8
daiko
 10
6.229722
 20
2.465115
 30
0.000000
 40
0.363558
 50
261.456395
 51
322.605345
  0
ARC
  8
daiko
 10
6.222936
 20
2.492834
 30
0.000000
 40
0.365987
 50
64.147879
 51
95.322707
  0
ARC
  8
daiko
 10
6.195298
 20
3.514867
 30
0.000000
 40
0.657157
 50
245.684972
 51
269.926592
  0
ARC
  8
daiko
 10
6.191073
 20
3.599044
 30
0.000000
 40
0.733139
 50
231.944186
 51
248.696037
  0
ARC
  8
daiko
 10
6.142665
 20
2.462875
 30
0.000000
 40
0.432021
 50
2.778365
 51
56.275297
  0
ARC
  8
daiko
 10
6.247706
 20
2.433433
 30
0.000000
 40
0.330337
 50
325.077521
 51
8.773087
  0
LINE
  8
daiko
 10
5.823363
 20
3.045660
 30
0.000000
 11
6.145649
 21
2.859589
 31
0.000000
  0
LINE
  8
daiko
 10
0.834832
 20
2.717528
 30
0.000000
 11
1.065316
 21
1.245039
 31
0.000000
  0
LINE
  8
daiko
 10
0.664055
 20
1.262698
 30
0.000000
 11
0.443522
 21
2.671618
 31
0.000000
  0
LINE
  8
daiko
 10
0.881110
 20
2.721797
 30
0.000000
 11
1.103111
 21
1.303496
 31
0.000000
  0
LINE
  8
daiko
 10
1.103111
 20
1.303496
 30
0.000000
 11
1.457452
 21
1.404857
 31
0.000000
  0
LINE
  8
daiko
 10
1.065316
 20
1.245039
 30
0.000000
 11
1.419657
 21
1.346399
 31
0.000000
  0
LINE
  8
daiko
 10
1.419657
 20
1.346399
 30
0.000000
 11
1.511409
 21
0.760223
 31
0.000000
  0
LINE
  8
daiko
 10
1.457452
 20
1.404857
 30
0.000000
 11
1.557686
 21
0.764491
 31
0.000000
  0
LINE
  8
daiko
 10
1.120098
 20
0.714313
 30
0.000000
 11
1.036829
 21
1.246292
 31
0.000000
  0
LINE
  8
daiko
 10
1.065316
 20
1.245039
 30
0.000000
 11
0.664055
 21
1.262698
 31
0.000000
  0
ARC
  8
daiko
 10
1.610144
 20
0.783433
 30
0.000000
 40
0.494897
 50
188.028524
 51
219.371207
  0
ARC
  8
daiko
 10
1.360606
 20
0.564234
 30
0.000000
 40
0.163325
 50
215.453320
 51
241.212907
  0
ARC
  8
daiko
 10
1.352061
 20
0.525056
 30
0.000000
 40
0.125391
 50
236.006934
 51
315.759257
  0
ARC
  8
daiko
 10
1.224719
 20
0.631374
 30
0.000000
 40
0.291072
 50
318.255121
 51
354.614585
  0
ARC
  8
daiko
 10
1.025029
 20
0.672460
 30
0.000000
 40
0.494234
 50
352.044380
 51
10.228430
  0
ARC
  8
daiko
 10
1.270997
 20
0.635642
 30
0.000000
 40
0.291072
 50
318.255121
 51
354.614585
  0
ARC
  8
daiko
 10
1.071307
 20
0.676729
 30
0.000000
 40
0.494234
 50
352.044380
 51
10.228430
  0
LINE
  8
daiko
 10
1.364913
 20
0.400325
 30
0.000000
 11
1.456692
 21
0.418339
 31
0.000000
  0
ARC
  8
daiko
 10
1.398339
 20
0.529324
 30
0.000000
 40
0.125391
 50
297.734319
 51
315.759257
  0
LINE
  8
daiko
 10
1.457452
 20
1.404857
 30
0.000000
 11
1.084678
 21
1.421262
 31
0.000000
  0
ARC
  8
daiko
 10
0.998158
 20
2.759731
 30
0.000000
 40
0.562840
 50
163.334616
 51
192.713594
  0
ARC
  8
daiko
 10
0.614588
 20
2.871593
 30
0.000000
 40
0.163325
 50
136.579320
 51
162.338907
  0
ARC
  8
daiko
 10
0.594480
 20
2.906286
 30
0.000000
 40
0.125391
 50
62.032969
 51
141.785293
  0
ARC
  8
daiko
 10
0.449242
 20
2.697835
 30
0.000000
 40
0.378841
 50
25.572758
 51
57.412073
  0
ARC
  8
daiko
 10
0.345807
 20
2.646664
 30
0.000000
 40
0.494234
 50
7.563797
 51
25.747846
  0
ARC
  8
daiko
 10
0.640667
 20
2.887356
 30
0.000000
 40
0.149313
 50
57.903548
 51
82.195846
  0
ARC
  8
daiko
 10
0.489609
 20
2.706905
 30
0.000000
 40
0.383790
 50
25.385966
 51
53.107546
  0
ARC
  8
daiko
 10
0.391176
 20
2.656741
 30
0.000000
 40
0.494234
 50
7.563797
 51
25.747846
  0
LINE
  8
daiko
 10
0.568604
 20
3.028979
 30
0.000000
 11
0.660941
 21
3.035286
 31
0.000000
  0
ARC
  8
daiko
 10
1.342714
 20
0.826138
 30
0.000000
 40
0.193571
 50
135.725784
 51
160.080518
  0
ARC
  8
daiko
 10
1.444693
 20
0.789182
 30
0.000000
 40
0.302040
 50
160.080518
 51
176.692901
  0
ARC
  8
daiko
 10
1.597512
 20
0.780352
 30
0.000000
 40
0.455114
 50
176.692901
 51
203.727469
  0
ARC
  8
daiko
 10
1.457378
 20
0.718757
 30
0.000000
 40
0.302040
 50
203.727469
 51
220.339851
  0
ARC
  8
daiko
 10
1.374701
 20
0.648543
 30
0.000000
 40
0.193571
 50
220.339851
 51
244.694586
  0
ARC
  8
daiko
 10
1.331537
 20
0.557253
 30
0.000000
 40
0.092591
 50
244.694586
 51
315.725784
  0
ARC
  8
daiko
 10
1.259235
 20
0.627746
 30
0.000000
 40
0.193571
 50
315.725784
 51
340.080518
  0
ARC
  8
daiko
 10
1.157256
 20
0.664701
 30
0.000000
 40
0.302040
 50
340.080518
 51
356.692901
  0
ARC
  8
daiko
 10
1.004436
 20
0.673532
 30
0.000000
 40
0.455114
 50
356.692901
 51
23.727469
  0
ARC
  8
daiko
 10
1.144571
 20
0.735127
 30
0.000000
 40
0.302040
 50
23.727469
 51
40.339851
  0
ARC
  8
daiko
 10
1.227248
 20
0.805341
 30
0.000000
 40
0.193571
 50
40.339851
 51
64.694586
  0
ARC
  8
daiko
 10
1.270411
 20
0.896631
 30
0.000000
 40
0.092591
 50
64.694586
 51
135.725784
  0
ARC
  8
daiko
 10
0.692216
 20
2.565893
 30
0.000000
 40
0.193571
 50
135.725784
 51
160.080518
  0
ARC
  8
daiko
 10
0.794195
 20
2.528937
 30
0.000000
 40
0.302040
 50
160.080518
 51
176.692901
  0
ARC
  8
daiko
 10
0.947015
 20
2.520107
 30
0.000000
 40
0.455114
 50
176.692901
 51
203.727469
  0
ARC
  8
daiko
 10
0.806880
 20
2.458512
 30
0.000000
 40
0.302040
 50
203.727469
 51
220.339851
  0
ARC
  8
daiko
 10
0.724203
 20
2.388298
 30
0.000000
 40
0.193571
 50
220.339851
 51
244.694586
  0
ARC
  8
daiko
 10
0.681040
 20
2.297008
 30
0.000000
 40
0.092591
 50
244.694586
 51
315.725784
  0
ARC
  8
daiko
 10
0.608737
 20
2.367501
 30
0.000000
 40
0.193571
 50
315.725784
 51
340.080518
  0
ARC
  8
daiko
 10
0.506758
 20
2.404456
 30
0.000000
 40
0.302040
 50
340.080518
 51
356.692901
  0
ARC
  8
daiko
 10
0.353939
 20
2.413287
 30
0.000000
 40
0.455114
 50
356.692901
 51
23.727469
  0
ARC
  8
daiko
 10
0.494073
 20
2.474882
 30
0.000000
 40
0.302040
 50
23.727469
 51
40.339851
  0
ARC
  8
daiko
 10
0.576751
 20
2.545096
 30
0.000000
 40
0.193571
 50
40.339851
 51
64.694586
  0
ARC
  8
daiko
 10
0.619914
 20
2.636386
 30
0.000000
 40
0.092591
 50
64.694586
 51
135.725784
  0
ARC
  8
daiko
 10
1.269356
 20
2.273831
 30
0.000000
 40
0.119430
 50
156.140645
 51
180.515944
  0
ARC
  8
daiko
 10
1.334984
 20
2.274422
 30
0.000000
 40
0.185061
 50
180.515944
 51
197.243619
  0
ARC
  8
daiko
 10
1.423254
 20
2.301820
 30
0.000000
 40
0.277485
 50
197.243619
 51
224.532526
  0
ARC
  8
daiko
 10
1.357369
 20
2.237001
 30
0.000000
 40
0.185061
 50
224.532526
 51
241.260202
  0
ARC
  8
daiko
 10
1.325812
 20
2.179455
 30
0.000000
 40
0.119430
 50
241.260202
 51
265.635501
  0
ARC
  8
daiko
 10
1.321141
 20
2.118255
 30
0.000000
 40
0.058052
 50
265.635501
 51
336.140645
  0
ARC
  8
daiko
 10
1.265008
 20
2.143082
 30
0.000000
 40
0.119430
 50
336.140645
 51
0.515944
  0
ARC
  8
daiko
 10
1.199380
 20
2.142491
 30
0.000000
 40
0.185061
 50
0.515944
 51
17.243619
  0
ARC
  8
daiko
 10
1.111110
 20
2.115094
 30
0.000000
 40
0.277485
 50
17.243619
 51
44.532526
  0
ARC
  8
daiko
 10
1.176994
 20
2.179912
 30
0.000000
 40
0.185061
 50
44.532526
 51
61.260202
  0
ARC
  8
daiko
 10
1.208552
 20
2.237458
 30
0.000000
 40
0.119430
 50
61.260202
 51
85.635501
  0
ARC
  8
daiko
 10
1.213223
 20
2.298658
 30
0.000000
 40
0.058052
 50
85.635501
 51
156.140645
  0
ARC
  8
daiko
 10
0.186576
 20
2.896257
 30
0.000000
 40
0.119430
 50
156.140645
 51
180.515944
  0
ARC
  8
daiko
 10
0.252204
 20
2.896848
 30
0.000000
 40
0.185061
 50
180.515944
 51
197.243619
  0
ARC
  8
daiko
 10
0.340474
 20
2.924246
 30
0.000000
 40
0.277485
 50
197.243619
 51
224.532526
  0
ARC
  8
daiko
 10
0.274589
 20
2.859427
 30
0.000000
 40
0.185061
 50
224.532526
 51
241.260202
  0
ARC
  8
daiko
 10
0.243032
 20
2.801881
 30
0.000000
 40
0.119430
 50
241.260202
 51
265.635501
  0
ARC
  8
daiko
 10
0.238361
 20
2.740681
 30
0.000000
 40
0.058052
 50
265.635501
 51
336.140645
  0
ARC
  8
daiko
 10
0.182228
 20
2.765508
 30
0.000000
 40
0.119430
 50
336.140645
 51
0.515944
  0
ARC
  8
daiko
 10
0.116600
 20
2.764917
 30
0.000000
 40
0.185061
 50
0.515944
 51
17.243619
  0
ARC
  8
daiko
 10
0.028330
 20
2.737519
 30
0.000000
 40
0.277485
 50
17.243619
 51
44.532526
  0
ARC
  8
daiko
 10
0.094214
 20
2.802338
 30
0.000000
 40
0.185061
 50
44.532526
 51
61.260202
  0
ARC
  8
daiko
 10
0.125772
 20
2.859884
 30
0.000000
 40
0.119430
 50
61.260202
 51
85.635501
  0
ARC
  8
daiko
 10
0.130443
 20
2.921084
 30
0.000000
 40
0.058052
 50
85.635501
 51
156.140645
  0
ARC
  8
daiko
 10
2.106940
 20
0.983122
 30
0.000000
 40
0.052912
 50
33.509011
 51
98.810702
  0
ARC
  8
daiko
 10
2.115308
 20
0.905551
 30
0.000000
 40
0.130899
 50
97.229556
 51
133.194579
  0
ARC
  8
daiko
 10
2.197636
 20
0.803051
 30
0.000000
 40
0.262144
 50
130.978175
 51
167.585393
  0
ARC
  8
daiko
 10
2.097812
 20
0.825748
 30
0.000000
 40
0.159776
 50
167.838507
 51
194.317152
  0
ARC
  8
daiko
 10
2.005962
 20
0.802984
 30
0.000000
 40
0.065153
 50
194.894220
 51
236.828996
  0
ARC
  8
daiko
 10
1.991830
 20
0.927552
 30
0.000000
 40
0.180392
 50
263.150027
 51
28.032903
  0
ARC
  8
daiko
 10
46.775814
 20
13.668764
 30
0.000000
 40
0.052912
 50
33.509011
 51
98.810702
  0
ARC
  8
daiko
 10
46.784183
 20
13.591193
 30
0.000000
 40
0.130899
 50
97.229556
 51
133.194579
  0
ARC
  8
daiko
 10
46.866510
 20
13.488693
 30
0.000000
 40
0.262144
 50
130.978175
 51
167.585393
  0
ARC
  8
daiko
 10
46.766687
 20
13.511390
 30
0.000000
 40
0.159776
 50
167.838507
 51
194.317152
  0
ARC
  8
daiko
 10
46.674837
 20
13.488626
 30
0.000000
 40
0.065153
 50
194.894220
 51
236.828996
  0
ARC
  8
daiko
 10
46.660704
 20
13.613195
 30
0.000000
 40
0.180392
 50
263.150027
 51
28.032903
  0
TEXT
  8
daiko
 10
0.000000
 20
-10.000000
 30
0.000000
 40
4.000000
  1
LZY-91364YTV
  7
BIGFONT
  0
TEXT
  8
daiko
 10
0.000000
 20
-14.000000
 30
0.000000
 40
3.000000
  1
LED15.5W       3000K
  7
BIGFONT
  0
TEXT
  8
daiko
 10
0.000000
 20
-18.000000
 30
0.000000
 40
3.000000
  1
演色性 Ra96    ｼﾙﾊﾞｰ
  7
BIGFONT
  0
TEXT
  8
daiko
 10
0.000000
 20
-22.000000
 30
0.000000
 40
3.000000
  1
巾最大81 長1251 高最大69mm
  7
BIGFONT
  0
ENDSEC
  0
EOF
