  0
SECTION
  2
HEADER
  9
$EXTMIN
 10
0.000000
 20
-23.000000
 30
0.000000
  9
$EXTMAX
 10
47.324629
 20
16.689529
 30
0.000000
  0
ENDSEC
  0
SECTION
  2
TABLES
  0
TABLE
  2
LTYPE
 70
     1
  0
LTYPE
  2
CONTINUOUS
 70
     0
  3
Solid line
 72
    65
 73
     0
 40
0.000000
  0
ENDTAB
  0
TABLE
  2
STYLE
 70
     2
  0
STYLE
  2
BIGFONT
 70
     0
 40
1.000000
 41
1.000000
 50
0.000000
 71
     0
 42
0.000000
  3
txt
  4
bigfont
  0
STYLE
  2
STANDARD
 70
     0
 40
0.000000
 41
1.000000
 50
0.000000
 71
     0
 42
3.500000
  3
txt.shx
  4
bigfont.shx
  0
ENDTAB
  0
TABLE
  2
LAYER
 70
     1
  0
LAYER
  2
daiko
 70
     0
 62
     7
  6
CONTINUOUS
  0
ENDTAB
  0
ENDSEC
  0
SECTION
  2
ENTITIES
  0
LINE
  8
daiko
 10
0.208168
 20
3.879859
 30
0.000000
 11
0.053102
 21
3.969386
 31
0.000000
  0
ARC
  8
daiko
 10
2.201271
 20
4.030516
 30
0.000000
 40
2.202176
 50
182.440157
 51
211.712122
  0
LINE
  8
daiko
 10
0.396006
 20
2.814789
 30
0.000000
 11
0.662007
 21
2.652067
 31
0.000000
  0
LINE
  8
daiko
 10
1.270107
 20
2.324344
 30
0.000000
 11
1.439696
 21
2.226432
 31
0.000000
  0
ARC
  8
daiko
 10
1.499397
 20
2.296616
 30
0.000000
 40
0.092141
 50
229.614377
 51
320.118112
  0
ARC
  8
daiko
 10
0.904630
 20
2.867470
 30
0.000000
 40
0.916337
 50
316.571412
 51
1.168776
  0
ARC
  8
daiko
 10
1.706447
 20
2.882941
 30
0.000000
 40
0.114375
 50
1.613040
 51
56.984192
  0
LINE
  8
daiko
 10
1.768766
 20
2.978847
 30
0.000000
 11
1.613700
 21
3.068374
 31
0.000000
  0
ARC
  8
daiko
 10
-0.114988
 20
2.080038
 30
0.000000
 40
1.991274
 50
29.757743
 51
58.988575
  0
ARC
  8
daiko
 10
0.471691
 20
3.170565
 30
0.000000
 40
0.756665
 50
54.514418
 51
110.381489
  0
ARC
  8
daiko
 10
-0.038459
 20
2.101081
 30
0.000000
 40
1.991274
 50
29.757743
 51
58.988575
  0
ARC
  8
daiko
 10
0.548221
 20
3.191608
 30
0.000000
 40
0.756665
 50
54.514418
 51
99.935932
  0
ARC
  8
daiko
 10
0.559529
 20
3.261170
 30
0.000000
 40
0.690486
 50
101.856526
 51
108.618699
  0
LINE
  8
daiko
 10
0.129631
 20
3.990429
 30
0.000000
 11
0.281274
 21
3.902878
 31
0.000000
  0
LINE
  8
daiko
 10
1.690230
 20
3.089418
 30
0.000000
 11
1.845296
 21
2.999890
 31
0.000000
  0
ARC
  8
daiko
 10
1.782462
 20
2.903842
 30
0.000000
 40
0.114893
 50
1.676759
 51
56.874486
  0
ARC
  8
daiko
 10
0.925036
 20
2.887481
 30
0.000000
 40
0.972470
 50
316.993952
 51
1.162121
  0
ARC
  8
daiko
 10
1.572151
 20
2.267627
 30
0.000000
 40
0.077381
 50
265.118285
 51
325.844977
  0
ARC
  8
daiko
 10
1.583230
 20
2.438259
 30
0.000000
 40
0.248361
 50
250.272554
 51
265.921602
  0
ARC
  8
daiko
 10
0.476051
 20
2.977569
 30
0.000000
 40
0.181396
 50
215.230317
 51
243.814965
  0
LINE
  8
daiko
 10
2.117241
 20
0.022771
 30
0.000000
 11
2.130256
 21
1.881078
 31
0.000000
  0
LINE
  8
daiko
 10
2.130256
 20
1.881078
 30
0.000000
 11
1.658763
 21
2.153294
 31
0.000000
  0
LINE
  8
daiko
 10
1.602229
 20
2.165356
 30
0.000000
 11
1.419422
 21
2.123130
 31
0.000000
  0
LINE
  8
daiko
 10
1.334620
 20
2.141223
 30
0.000000
 11
1.295209
 21
2.163977
 31
0.000000
  0
LINE
  8
daiko
 10
1.336004
 20
2.200534
 30
0.000000
 11
1.284866
 21
2.230059
 31
0.000000
  0
LINE
  8
daiko
 10
1.392538
 20
2.188473
 30
0.000000
 11
1.475484
 21
2.207632
 31
0.000000
  0
ARC
  8
daiko
 10
1.379972
 20
2.268098
 30
0.000000
 40
0.080610
 50
236.945083
 51
278.968210
  0
ARC
  8
daiko
 10
1.400573
 20
2.242568
 30
0.000000
 40
0.120916
 50
236.945076
 51
278.968217
  0
ARC
  8
daiko
 10
1.614795
 20
2.085731
 30
0.000000
 40
0.080610
 50
56.945083
 51
98.968210
  0
LINE
  8
daiko
 10
1.636186
 20
2.224183
 30
0.000000
 11
2.139275
 21
1.935071
 31
0.000000
  0
LINE
  8
daiko
 10
2.182312
 20
1.851023
 30
0.000000
 11
2.182312
 21
1.373875
 31
0.000000
  0
ARC
  8
daiko
 10
2.065392
 20
1.844196
 30
0.000000
 40
0.117119
 50
3.341489
 51
50.887950
  0
ARC
  8
daiko
 10
2.321456
 20
1.373875
 30
0.000000
 40
0.139143
 50
180.000000
 51
283.561910
  0
ARC
  8
daiko
 10
2.269399
 20
1.359146
 30
0.000000
 40
0.139143
 50
180.000000
 51
270.000000
  0
ARC
  8
daiko
 10
2.253243
 20
1.495018
 30
0.000000
 40
0.275489
 50
273.362001
 51
291.418076
  0
LINE
  8
daiko
 10
2.086007
 20
0.004738
 30
0.000000
 11
0.586773
 21
0.870321
 31
0.000000
  0
LINE
  8
daiko
 10
0.555539
 20
0.924420
 30
0.000000
 11
0.555539
 21
2.717197
 31
0.000000
  0
LINE
  8
daiko
 10
0.480226
 20
2.763276
 30
0.000000
 11
0.480226
 21
2.186382
 31
0.000000
  0
LINE
  8
daiko
 10
0.530435
 20
2.732554
 30
0.000000
 11
0.530435
 21
2.165918
 31
0.000000
  0
ARC
  8
daiko
 10
0.624476
 20
0.928155
 30
0.000000
 40
0.069038
 50
183.101069
 51
236.898931
  0
ARC
  8
daiko
 10
0.617657
 20
2.179561
 30
0.000000
 40
0.137601
 50
177.158545
 51
243.164144
  0
ARC
  8
daiko
 10
0.692707
 20
2.159097
 30
0.000000
 40
0.162415
 50
177.592959
 51
212.376470
  0
ARC
  8
daiko
 10
0.032123
 20
3.945059
 30
0.000000
 40
0.032123
 50
49.226727
 51
194.979895
  0
ARC
  8
daiko
 10
0.105796
 20
3.953137
 30
0.000000
 40
0.044259
 50
57.415088
 51
94.390401
  0
LINE
  8
daiko
 10
45.705561
 20
16.688873
 30
0.000000
 11
0.020713
 21
3.975539
 31
0.000000
  0
LINE
  8
daiko
 10
0.417661
 20
3.936924
 30
0.000000
 11
45.908104
 21
16.614792
 31
0.000000
  0
LINE
  8
daiko
 10
1.613700
 20
3.068374
 30
0.000000
 11
47.137868
 21
15.872457
 31
0.000000
  0
LINE
  8
daiko
 10
47.292329
 20
15.780469
 30
0.000000
 11
1.768766
 21
2.978847
 31
0.000000
  0
LINE
  8
daiko
 10
1.660146
 20
2.212605
 30
0.000000
 11
47.051326
 21
15.066212
 31
0.000000
  0
LINE
  8
daiko
 10
2.353843
 20
1.238554
 30
0.000000
 11
7.042243
 21
2.565092
 31
0.000000
  0
LINE
  8
daiko
 10
7.109723
 20
2.654343
 30
0.000000
 11
7.109723
 21
3.211976
 31
0.000000
  0
LINE
  8
daiko
 10
7.026038
 20
3.315226
 30
0.000000
 11
6.503085
 21
3.584000
 31
0.000000
  0
LINE
  8
daiko
 10
8.121321
 20
3.624533
 30
0.000000
 11
7.597293
 21
3.893852
 31
0.000000
  0
LINE
  8
daiko
 10
8.203149
 20
3.522238
 30
0.000000
 11
8.203149
 21
3.205853
 31
0.000000
  0
LINE
  8
daiko
 10
8.138833
 20
3.541612
 30
0.000000
 11
8.138833
 21
3.360671
 31
0.000000
  0
LINE
  8
daiko
 10
8.138833
 20
3.541612
 30
0.000000
 11
8.079944
 21
3.439614
 31
0.000000
  0
LINE
  8
daiko
 10
8.121321
 20
3.624533
 30
0.000000
 11
8.044661
 21
3.475370
 31
0.000000
  0
ARC
  8
daiko
 10
8.089072
 20
3.514860
 30
0.000000
 40
0.114316
 50
3.700322
 51
73.613734
  0
ARC
  8
daiko
 10
6.994758
 20
3.204334
 30
0.000000
 40
0.115219
 50
3.802736
 51
74.247750
  0
ARC
  8
daiko
 10
7.016961
 20
2.654343
 30
0.000000
 40
0.092762
 50
285.815789
 51
0.000000
  0
LINE
  8
daiko
 10
7.247809
 20
3.187186
 30
0.000000
 11
7.707391
 21
3.317008
 31
0.000000
  0
LINE
  8
daiko
 10
7.243160
 20
3.133608
 30
0.000000
 11
7.796450
 21
3.289900
 31
0.000000
  0
LINE
  8
daiko
 10
7.247809
 20
3.187186
 30
0.000000
 11
7.075154
 21
3.286869
 31
0.000000
  0
LINE
  8
daiko
 10
7.243160
 20
3.133608
 30
0.000000
 11
7.109723
 21
3.211976
 31
0.000000
  0
LINE
  8
daiko
 10
2.169639
 20
1.897576
 30
0.000000
 11
7.095239
 21
3.260717
 31
0.000000
  0
ARC
  8
daiko
 10
2.098575
 20
0.019036
 30
0.000000
 40
0.019036
 50
228.685764
 51
11.314236
  0
LINE
  8
daiko
 10
2.108093
 20
0.002550
 30
0.000000
 11
47.046434
 21
12.839990
 31
0.000000
  0
LINE
  8
daiko
 10
47.046434
 20
12.839990
 30
0.000000
 11
47.046434
 21
13.963178
 31
0.000000
  0
LINE
  8
daiko
 10
47.095888
 20
13.977207
 30
0.000000
 11
43.489865
 21
12.954232
 31
0.000000
  0
LINE
  8
daiko
 10
43.369229
 20
13.011798
 30
0.000000
 11
43.369229
 21
13.547643
 31
0.000000
  0
LINE
  8
daiko
 10
43.304912
 20
13.092283
 30
0.000000
 11
43.304912
 21
13.567017
 31
0.000000
  0
LINE
  8
daiko
 10
43.304912
 20
13.567017
 30
0.000000
 11
43.197986
 21
13.381816
 31
0.000000
  0
LINE
  8
daiko
 10
43.197986
 20
13.381816
 30
0.000000
 11
42.409240
 21
13.159013
 31
0.000000
  0
LINE
  8
daiko
 10
42.413888
 20
13.212591
 30
0.000000
 11
43.155915
 21
13.422197
 31
0.000000
  0
LINE
  8
daiko
 10
43.287401
 20
13.649938
 30
0.000000
 11
43.155915
 21
13.422197
 31
0.000000
  0
LINE
  8
daiko
 10
42.413888
 20
13.212591
 30
0.000000
 11
42.239977
 21
13.312999
 31
0.000000
  0
LINE
  8
daiko
 10
41.753530
 20
13.566013
 30
0.000000
 11
42.213506
 21
13.328282
 31
0.000000
  0
LINE
  8
daiko
 10
42.275803
 20
13.237380
 30
0.000000
 11
42.275803
 21
12.679747
 31
0.000000
  0
LINE
  8
daiko
 10
42.208323
 20
12.590497
 30
0.000000
 11
8.194480
 21
2.892135
 31
0.000000
  0
LINE
  8
daiko
 10
8.178341
 20
3.586269
 30
0.000000
 11
42.261318
 21
13.286122
 31
0.000000
  0
ARC
  8
daiko
 10
42.175354
 20
13.235337
 30
0.000000
 40
0.100470
 50
1.165034
 51
67.682758
  0
ARC
  8
daiko
 10
42.183041
 20
12.679747
 30
0.000000
 40
0.092762
 50
285.815809
 51
0.000000
  0
LINE
  8
daiko
 10
42.409240
 20
13.159013
 30
0.000000
 11
42.275803
 21
13.237380
 31
0.000000
  0
LINE
  8
daiko
 10
43.304912
 20
13.567017
 30
0.000000
 11
43.287401
 21
13.649938
 31
0.000000
  0
ARC
  8
daiko
 10
43.255151
 20
13.540265
 30
0.000000
 40
0.114316
 50
3.700322
 51
73.613734
  0
LINE
  8
daiko
 10
43.287401
 20
13.649938
 30
0.000000
 11
42.847780
 21
13.875876
 31
0.000000
  0
LINE
  8
daiko
 10
43.344420
 20
13.611673
 30
0.000000
 11
47.081403
 21
14.653717
 31
0.000000
  0
LINE
  8
daiko
 10
46.494645
 20
14.909498
 30
0.000000
 11
47.042243
 21
14.692294
 31
0.000000
  0
LINE
  8
daiko
 10
47.095888
 20
14.604975
 30
0.000000
 11
47.095888
 21
13.977207
 31
0.000000
  0
ARC
  8
daiko
 10
46.995302
 20
14.603317
 30
0.000000
 40
0.100600
 50
0.944191
 51
62.185703
  0
ARC
  8
daiko
 10
43.462990
 20
13.111146
 30
0.000000
 40
0.159199
 50
186.805033
 51
279.718877
  0
ARC
  8
daiko
 10
43.444145
 20
13.034182
 30
0.000000
 40
0.078189
 50
196.635853
 51
250.997223
  0
ARC
  8
daiko
 10
46.492198
 20
15.682910
 30
0.000000
 40
0.832431
 50
312.196974
 51
1.759228
  0
ARC
  8
daiko
 10
46.414625
 20
15.677359
 30
0.000000
 40
0.866824
 50
314.357235
 51
1.274567
  0
ARC
  8
daiko
 10
47.219103
 20
15.704949
 30
0.000000
 40
0.105192
 50
1.915328
 51
45.883552
  0
ARC
  8
daiko
 10
47.175889
 20
15.693066
 30
0.000000
 40
0.105406
 50
1.943382
 51
45.751758
  0
LINE
  8
daiko
 10
47.292329
 20
15.780469
 30
0.000000
 11
47.137868
 21
15.872457
 31
0.000000
  0
LINE
  8
daiko
 10
47.094993
 20
15.860559
 30
0.000000
 11
47.249438
 21
15.768571
 31
0.000000
  0
ARC
  8
daiko
 10
45.582048
 20
14.982954
 30
0.000000
 40
1.792147
 50
29.757743
 51
58.988575
  0
ARC
  8
daiko
 10
45.538332
 20
14.970226
 30
0.000000
 40
1.793289
 50
29.767435
 51
58.983892
  0
ARC
  8
daiko
 10
46.110060
 20
15.964428
 30
0.000000
 40
0.680999
 50
54.514418
 51
107.251009
  0
ARC
  8
daiko
 10
46.067058
 20
15.952604
 30
0.000000
 40
0.680999
 50
54.514418
 51
103.498103
  0
LINE
  8
daiko
 10
45.690327
 20
16.671543
 30
0.000000
 11
45.826935
 21
16.592673
 31
0.000000
  0
LINE
  8
daiko
 10
45.870061
 20
16.604425
 30
0.000000
 11
45.733329
 21
16.683368
 31
0.000000
  0
ARC
  8
daiko
 10
45.712588
 20
16.651539
 30
0.000000
 40
0.037990
 50
56.909734
 51
100.660256
  0
ARC
  8
daiko
 10
45.669332
 20
16.639225
 30
0.000000
 40
0.038540
 50
56.991011
 51
97.963614
  0
ARC
  8
daiko
 10
7.624605
 20
2.736245
 30
0.000000
 40
0.277993
 50
228.835943
 51
280.072572
  0
ARC
  8
daiko
 10
7.615889
 20
2.785311
 30
0.000000
 40
0.327828
 50
280.072572
 51
303.633092
  0
ARC
  8
daiko
 10
7.591263
 20
2.822331
 30
0.000000
 40
0.372290
 50
303.633092
 51
324.766710
  0
ARC
  8
daiko
 10
7.545477
 20
2.854669
 30
0.000000
 40
0.428345
 50
324.766710
 51
330.968462
  0
ARC
  8
daiko
 10
7.641591
 20
2.877702
 30
0.000000
 40
0.327828
 50
35.546981
 51
48.835943
  0
ARC
  8
daiko
 10
7.674393
 20
2.915219
 30
0.000000
 40
0.277993
 50
48.835943
 51
100.072572
  0
ARC
  8
daiko
 10
7.683109
 20
2.866152
 30
0.000000
 40
0.327828
 50
100.072572
 51
123.633092
  0
ARC
  8
daiko
 10
7.707735
 20
2.829133
 30
0.000000
 40
0.372290
 50
123.633092
 51
144.766710
  0
ARC
  8
daiko
 10
7.753521
 20
2.796794
 30
0.000000
 40
0.428345
 50
144.766710
 51
184.141805
  0
ARC
  8
daiko
 10
7.697613
 20
2.792746
 30
0.000000
 40
0.372290
 50
184.141805
 51
205.275423
  0
ARC
  8
daiko
 10
7.657407
 20
2.773762
 30
0.000000
 40
0.327828
 50
205.275423
 51
228.835943
  0
ARC
  8
daiko
 10
7.663618
 20
2.715008
 30
0.000000
 40
0.194157
 50
228.855680
 51
280.559274
  0
ARC
  8
daiko
 10
7.656704
 20
2.752100
 30
0.000000
 40
0.231887
 50
280.559274
 51
304.181378
  0
ARC
  8
daiko
 10
7.637704
 20
2.780077
 30
0.000000
 40
0.265706
 50
304.181378
 51
325.208512
  0
ARC
  8
daiko
 10
7.602561
 20
2.804494
 30
0.000000
 40
0.308500
 50
325.208512
 51
326.142634
  0
ARC
  8
daiko
 10
7.675831
 20
2.822050
 30
0.000000
 40
0.231887
 50
43.733824
 51
48.855680
  0
ARC
  8
daiko
 10
7.700656
 20
2.850464
 30
0.000000
 40
0.194157
 50
48.855680
 51
100.559274
  0
ARC
  8
daiko
 10
7.707570
 20
2.813372
 30
0.000000
 40
0.231887
 50
100.559274
 51
124.181378
  0
ARC
  8
daiko
 10
7.726570
 20
2.785395
 30
0.000000
 40
0.265706
 50
124.181378
 51
145.208512
  0
ARC
  8
daiko
 10
7.761713
 20
2.760978
 30
0.000000
 40
0.308500
 50
145.208512
 51
184.206442
  0
ARC
  8
daiko
 10
7.719035
 20
2.757839
 30
0.000000
 40
0.265706
 50
184.206442
 51
205.233576
  0
ARC
  8
daiko
 10
7.688444
 20
2.743421
 30
0.000000
 40
0.231887
 50
205.233576
 51
228.855680
  0
ARC
  8
daiko
 10
7.860433
 20
4.637080
 30
0.000000
 40
1.335540
 50
224.611392
 51
253.507122
  0
ARC
  8
daiko
 10
7.289146
 20
1.667998
 30
0.000000
 40
1.699389
 50
72.631204
 51
83.508294
  0
ARC
  8
daiko
 10
7.743397
 20
3.127326
 30
0.000000
 40
0.171012
 50
359.595369
 51
71.927153
  0
ARC
  8
daiko
 10
7.759624
 20
3.113159
 30
0.000000
 40
0.155323
 50
286.723702
 51
4.785737
  0
ARC
  8
daiko
 10
7.731869
 20
3.370786
 30
0.000000
 40
0.412787
 50
257.844257
 51
280.108558
  0
ARC
  8
daiko
 10
7.082924
 20
0.514679
 30
0.000000
 40
2.516147
 50
77.093128
 51
79.233612
  0
ARC
  8
daiko
 10
7.869901
 20
4.039614
 30
0.000000
 40
1.415623
 50
253.335888
 51
263.906821
  0
ARC
  8
daiko
 10
7.787153
 20
3.081394
 30
0.000000
 40
0.454448
 50
261.456395
 51
322.605345
  0
ARC
  8
daiko
 10
7.778670
 20
3.116042
 30
0.000000
 40
0.457484
 50
64.147879
 51
95.322707
  0
ARC
  8
daiko
 10
7.744123
 20
4.393584
 30
0.000000
 40
0.821446
 50
245.684972
 51
269.926592
  0
ARC
  8
daiko
 10
7.738841
 20
4.498805
 30
0.000000
 40
0.916424
 50
232.185653
 51
248.696037
  0
ARC
  8
daiko
 10
7.678331
 20
3.078594
 30
0.000000
 40
0.540027
 50
2.778365
 51
56.275297
  0
ARC
  8
daiko
 10
7.809633
 20
3.041791
 30
0.000000
 40
0.412922
 50
325.077521
 51
8.773087
  0
LINE
  8
daiko
 10
7.283037
 20
3.804862
 30
0.000000
 11
7.682061
 21
3.574486
 31
0.000000
  0
LINE
  8
daiko
 10
1.043540
 20
3.396911
 30
0.000000
 11
1.331644
 21
1.556298
 31
0.000000
  0
LINE
  8
daiko
 10
0.830068
 20
1.578372
 30
0.000000
 11
0.554402
 21
3.339523
 31
0.000000
  0
LINE
  8
daiko
 10
1.101387
 20
3.402246
 30
0.000000
 11
1.378889
 21
1.629370
 31
0.000000
  0
LINE
  8
daiko
 10
1.378889
 20
1.629370
 30
0.000000
 11
1.821815
 21
1.756071
 31
0.000000
  0
LINE
  8
daiko
 10
1.331644
 20
1.556298
 30
0.000000
 11
1.774571
 21
1.682999
 31
0.000000
  0
LINE
  8
daiko
 10
1.774571
 20
1.682999
 30
0.000000
 11
1.889261
 21
0.950279
 31
0.000000
  0
LINE
  8
daiko
 10
1.821815
 20
1.756071
 30
0.000000
 11
1.947108
 21
0.955614
 31
0.000000
  0
LINE
  8
daiko
 10
1.400122
 20
0.892891
 30
0.000000
 11
1.296036
 21
1.557865
 31
0.000000
  0
LINE
  8
daiko
 10
1.331644
 20
1.556298
 30
0.000000
 11
0.830068
 21
1.578372
 31
0.000000
  0
ARC
  8
daiko
 10
2.012680
 20
0.979291
 30
0.000000
 40
0.618621
 50
188.028524
 51
219.371207
  0
ARC
  8
daiko
 10
1.700757
 20
0.705293
 30
0.000000
 40
0.204157
 50
215.453320
 51
241.212907
  0
ARC
  8
daiko
 10
1.690076
 20
0.656320
 30
0.000000
 40
0.156739
 50
236.006934
 51
315.759257
  0
ARC
  8
daiko
 10
1.530899
 20
0.789217
 30
0.000000
 40
0.363840
 50
318.255121
 51
354.614585
  0
ARC
  8
daiko
 10
1.281286
 20
0.840576
 30
0.000000
 40
0.617793
 50
352.044380
 51
10.228430
  0
ARC
  8
daiko
 10
1.588746
 20
0.794553
 30
0.000000
 40
0.363840
 50
318.255121
 51
354.614585
  0
ARC
  8
daiko
 10
1.339133
 20
0.845911
 30
0.000000
 40
0.617793
 50
352.044380
 51
10.228430
  0
LINE
  8
daiko
 10
1.706142
 20
0.500407
 30
0.000000
 11
1.820865
 21
0.522923
 31
0.000000
  0
ARC
  8
daiko
 10
1.747923
 20
0.661655
 30
0.000000
 40
0.156739
 50
297.734319
 51
315.759257
  0
LINE
  8
daiko
 10
1.821815
 20
1.756071
 30
0.000000
 11
1.355847
 21
1.776578
 31
0.000000
  0
ARC
  8
daiko
 10
1.247698
 20
3.449664
 30
0.000000
 40
0.703550
 50
163.334616
 51
192.713594
  0
ARC
  8
daiko
 10
0.768235
 20
3.589491
 30
0.000000
 40
0.204157
 50
136.579320
 51
162.338907
  0
ARC
  8
daiko
 10
0.743100
 20
3.632858
 30
0.000000
 40
0.156739
 50
62.032969
 51
141.785293
  0
ARC
  8
daiko
 10
0.561553
 20
3.372294
 30
0.000000
 40
0.473552
 50
25.572758
 51
57.412073
  0
ARC
  8
daiko
 10
0.432259
 20
3.308330
 30
0.000000
 40
0.617793
 50
7.563797
 51
25.747846
  0
ARC
  8
daiko
 10
0.800833
 20
3.609194
 30
0.000000
 40
0.186641
 50
57.903548
 51
82.195846
  0
ARC
  8
daiko
 10
0.612011
 20
3.383632
 30
0.000000
 40
0.479738
 50
25.385966
 51
53.107546
  0
ARC
  8
daiko
 10
0.488970
 20
3.320926
 30
0.000000
 40
0.617793
 50
7.563797
 51
25.747846
  0
LINE
  8
daiko
 10
0.710755
 20
3.786223
 30
0.000000
 11
0.826177
 21
3.794107
 31
0.000000
  0
ARC
  8
daiko
 10
1.678392
 20
1.032672
 30
0.000000
 40
0.241964
 50
135.725784
 51
160.080518
  0
ARC
  8
daiko
 10
1.805866
 20
0.986478
 30
0.000000
 40
0.377550
 50
160.080518
 51
176.692901
  0
ARC
  8
daiko
 10
1.996890
 20
0.975440
 30
0.000000
 40
0.568893
 50
176.692901
 51
203.727469
  0
ARC
  8
daiko
 10
1.821722
 20
0.898446
 30
0.000000
 40
0.377550
 50
203.727469
 51
220.339851
  0
ARC
  8
daiko
 10
1.718376
 20
0.810679
 30
0.000000
 40
0.241964
 50
220.339851
 51
244.694586
  0
ARC
  8
daiko
 10
1.664422
 20
0.696566
 30
0.000000
 40
0.115739
 50
244.694586
 51
315.725784
  0
ARC
  8
daiko
 10
1.574044
 20
0.784683
 30
0.000000
 40
0.241964
 50
315.725784
 51
340.080518
  0
ARC
  8
daiko
 10
1.446570
 20
0.830877
 30
0.000000
 40
0.377550
 50
340.080518
 51
356.692901
  0
ARC
  8
daiko
 10
1.255546
 20
0.841915
 30
0.000000
 40
0.568893
 50
356.692901
 51
23.727469
  0
ARC
  8
daiko
 10
1.430714
 20
0.918909
 30
0.000000
 40
0.377550
 50
23.727469
 51
40.339851
  0
ARC
  8
daiko
 10
1.534060
 20
1.006676
 30
0.000000
 40
0.241964
 50
40.339851
 51
64.694586
  0
ARC
  8
daiko
 10
1.588014
 20
1.120789
 30
0.000000
 40
0.115739
 50
64.694586
 51
135.725784
  0
ARC
  8
daiko
 10
0.865270
 20
3.207366
 30
0.000000
 40
0.241964
 50
135.725784
 51
160.080518
  0
ARC
  8
daiko
 10
0.992744
 20
3.161172
 30
0.000000
 40
0.377550
 50
160.080518
 51
176.692901
  0
ARC
  8
daiko
 10
1.183768
 20
3.150134
 30
0.000000
 40
0.568893
 50
176.692901
 51
203.727469
  0
ARC
  8
daiko
 10
1.008600
 20
3.073140
 30
0.000000
 40
0.377550
 50
203.727469
 51
220.339851
  0
ARC
  8
daiko
 10
0.905253
 20
2.985372
 30
0.000000
 40
0.241964
 50
220.339851
 51
244.694586
  0
ARC
  8
daiko
 10
0.851300
 20
2.871260
 30
0.000000
 40
0.115739
 50
244.694586
 51
315.725784
  0
ARC
  8
daiko
 10
0.760922
 20
2.959376
 30
0.000000
 40
0.241964
 50
315.725784
 51
340.080518
  0
ARC
  8
daiko
 10
0.633447
 20
3.005571
 30
0.000000
 40
0.377550
 50
340.080518
 51
356.692901
  0
ARC
  8
daiko
 10
0.442423
 20
3.016609
 30
0.000000
 40
0.568893
 50
356.692901
 51
23.727469
  0
ARC
  8
daiko
 10
0.617592
 20
3.093602
 30
0.000000
 40
0.377550
 50
23.727469
 51
40.339851
  0
ARC
  8
daiko
 10
0.720938
 20
3.181370
 30
0.000000
 40
0.241964
 50
40.339851
 51
64.694586
  0
ARC
  8
daiko
 10
0.774892
 20
3.295482
 30
0.000000
 40
0.115739
 50
64.694586
 51
135.725784
  0
ARC
  8
daiko
 10
1.586695
 20
2.842289
 30
0.000000
 40
0.149287
 50
156.140645
 51
180.515944
  0
ARC
  8
daiko
 10
1.668730
 20
2.843028
 30
0.000000
 40
0.231326
 50
180.515944
 51
197.243619
  0
ARC
  8
daiko
 10
1.779068
 20
2.877275
 30
0.000000
 40
0.346856
 50
197.243619
 51
224.532526
  0
ARC
  8
daiko
 10
1.696712
 20
2.796252
 30
0.000000
 40
0.231326
 50
224.532526
 51
241.260202
  0
ARC
  8
daiko
 10
1.657265
 20
2.724319
 30
0.000000
 40
0.149287
 50
241.260202
 51
265.635501
  0
ARC
  8
daiko
 10
1.651426
 20
2.647819
 30
0.000000
 40
0.072565
 50
265.635501
 51
336.140645
  0
ARC
  8
daiko
 10
1.581260
 20
2.678853
 30
0.000000
 40
0.149287
 50
336.140645
 51
0.515944
  0
ARC
  8
daiko
 10
1.499225
 20
2.678114
 30
0.000000
 40
0.231326
 50
0.515944
 51
17.243619
  0
ARC
  8
daiko
 10
1.388887
 20
2.643867
 30
0.000000
 40
0.346856
 50
17.243619
 51
44.532526
  0
ARC
  8
daiko
 10
1.471243
 20
2.724890
 30
0.000000
 40
0.231326
 50
44.532526
 51
61.260202
  0
ARC
  8
daiko
 10
1.510690
 20
2.796823
 30
0.000000
 40
0.149287
 50
61.260202
 51
85.635501
  0
ARC
  8
daiko
 10
1.516529
 20
2.873323
 30
0.000000
 40
0.072565
 50
85.635501
 51
156.140645
  0
ARC
  8
daiko
 10
0.233220
 20
3.620321
 30
0.000000
 40
0.149287
 50
156.140645
 51
180.515944
  0
ARC
  8
daiko
 10
0.315255
 20
3.621060
 30
0.000000
 40
0.231326
 50
180.515944
 51
197.243619
  0
ARC
  8
daiko
 10
0.425593
 20
3.655307
 30
0.000000
 40
0.346856
 50
197.243619
 51
224.532526
  0
ARC
  8
daiko
 10
0.343236
 20
3.574284
 30
0.000000
 40
0.231326
 50
224.532526
 51
241.260202
  0
ARC
  8
daiko
 10
0.303790
 20
3.502352
 30
0.000000
 40
0.149287
 50
241.260202
 51
265.635501
  0
ARC
  8
daiko
 10
0.297951
 20
3.425851
 30
0.000000
 40
0.072565
 50
265.635501
 51
336.140645
  0
ARC
  8
daiko
 10
0.227785
 20
3.456885
 30
0.000000
 40
0.149287
 50
336.140645
 51
0.515944
  0
ARC
  8
daiko
 10
0.145750
 20
3.456146
 30
0.000000
 40
0.231326
 50
0.515944
 51
17.243619
  0
ARC
  8
daiko
 10
0.035412
 20
3.421899
 30
0.000000
 40
0.346856
 50
17.243619
 51
44.532526
  0
ARC
  8
daiko
 10
0.117768
 20
3.502922
 30
0.000000
 40
0.231326
 50
44.532526
 51
61.260202
  0
ARC
  8
daiko
 10
0.157215
 20
3.574855
 30
0.000000
 40
0.149287
 50
61.260202
 51
85.635501
  0
ARC
  8
daiko
 10
0.163054
 20
3.651355
 30
0.000000
 40
0.072565
 50
85.635501
 51
156.140645
  0
ARC
  8
daiko
 10
2.633674
 20
1.228902
 30
0.000000
 40
0.066140
 50
33.509011
 51
98.810702
  0
ARC
  8
daiko
 10
2.644135
 20
1.131939
 30
0.000000
 40
0.163624
 50
97.229556
 51
133.194579
  0
ARC
  8
daiko
 10
2.747044
 20
1.003814
 30
0.000000
 40
0.327680
 50
130.978175
 51
167.585393
  0
ARC
  8
daiko
 10
2.622265
 20
1.032185
 30
0.000000
 40
0.199720
 50
167.838507
 51
194.317152
  0
ARC
  8
daiko
 10
2.507452
 20
1.003729
 30
0.000000
 40
0.081441
 50
194.894220
 51
236.828996
  0
ARC
  8
daiko
 10
2.489787
 20
1.159441
 30
0.000000
 40
0.225490
 50
263.150027
 51
28.032903
  0
ARC
  8
daiko
 10
46.847226
 20
13.761282
 30
0.000000
 40
0.066140
 50
33.509011
 51
98.810702
  0
ARC
  8
daiko
 10
46.857686
 20
13.664318
 30
0.000000
 40
0.163624
 50
97.229556
 51
133.194579
  0
ARC
  8
daiko
 10
46.960596
 20
13.536193
 30
0.000000
 40
0.327680
 50
130.978175
 51
167.585393
  0
ARC
  8
daiko
 10
46.835816
 20
13.564564
 30
0.000000
 40
0.199720
 50
167.838507
 51
194.317152
  0
ARC
  8
daiko
 10
46.721004
 20
13.536109
 30
0.000000
 40
0.081441
 50
194.894220
 51
236.828996
  0
ARC
  8
daiko
 10
46.703338
 20
13.691820
 30
0.000000
 40
0.225490
 50
263.150027
 51
28.032903
  0
TEXT
  8
daiko
 10
0.000000
 20
-10.000000
 30
0.000000
 40
4.000000
  1
LZY-91363NTF
  7
BIGFONT
  0
TEXT
  8
daiko
 10
0.000000
 20
-14.000000
 30
0.000000
 40
3.000000
  1
LED12.5W       4000K
  7
BIGFONT
  0
TEXT
  8
daiko
 10
0.000000
 20
-18.000000
 30
0.000000
 40
3.000000
  1
演色性 Ra83    ｼﾙﾊﾞｰ
  7
BIGFONT
  0
TEXT
  8
daiko
 10
0.000000
 20
-22.000000
 30
0.000000
 40
3.000000
  1
巾最大81 長1006 高最大69mm
  7
BIGFONT
  0
ENDSEC
  0
EOF
