  0
SECTION
  2
HEADER
  9
$EXTMIN
 10
0.000000
 20
-23.000000
 30
0.000000
  9
$EXTMAX
 10
47.791926
 20
18.588397
 30
0.000000
  0
ENDSEC
  0
SECTION
  2
TABLES
  0
TABLE
  2
LTYPE
 70
     1
  0
LTYPE
  2
CONTINUOUS
 70
     0
  3
Solid line
 72
    65
 73
     0
 40
0.000000
  0
ENDTAB
  0
TABLE
  2
STYLE
 70
     2
  0
STYLE
  2
BIGFONT
 70
     0
 40
1.000000
 41
1.000000
 50
0.000000
 71
     0
 42
0.000000
  3
txt
  4
bigfont
  0
STYLE
  2
STANDARD
 70
     0
 40
0.000000
 41
1.000000
 50
0.000000
 71
     0
 42
3.500000
  3
txt.shx
  4
bigfont.shx
  0
ENDTAB
  0
TABLE
  2
LAYER
 70
     1
  0
LAYER
  2
daiko
 70
     0
 62
     7
  6
CONTINUOUS
  0
ENDTAB
  0
ENDSEC
  0
SECTION
  2
ENTITIES
  0
LINE
  8
daiko
 10
0.324742
 20
6.052579
 30
0.000000
 11
0.082838
 21
6.192242
 31
0.000000
  0
ARC
  8
daiko
 10
3.433983
 20
6.287605
 30
0.000000
 40
3.435395
 50
182.440157
 51
211.712122
  0
LINE
  8
daiko
 10
0.617770
 20
4.391070
 30
0.000000
 11
1.032731
 21
4.137224
 31
0.000000
  0
LINE
  8
daiko
 10
1.981368
 20
3.625976
 30
0.000000
 11
2.245926
 21
3.473233
 31
0.000000
  0
ARC
  8
daiko
 10
2.339059
 20
3.582721
 30
0.000000
 40
0.143740
 50
229.614377
 51
320.118112
  0
ARC
  8
daiko
 10
1.411223
 20
4.473253
 30
0.000000
 40
1.429485
 50
316.571412
 51
1.168776
  0
ARC
  8
daiko
 10
2.662057
 20
4.497388
 30
0.000000
 40
0.178424
 50
1.613040
 51
56.984192
  0
LINE
  8
daiko
 10
2.759275
 20
4.647001
 30
0.000000
 11
2.517372
 21
4.786664
 31
0.000000
  0
ARC
  8
daiko
 10
-0.179382
 20
3.244859
 30
0.000000
 40
3.106388
 50
29.757743
 51
58.988575
  0
ARC
  8
daiko
 10
0.735838
 20
4.946081
 30
0.000000
 40
1.180398
 50
54.514418
 51
110.381489
  0
ARC
  8
daiko
 10
-0.059995
 20
3.277686
 30
0.000000
 40
3.106388
 50
29.757743
 51
58.988575
  0
ARC
  8
daiko
 10
0.855225
 20
4.978908
 30
0.000000
 40
1.180398
 50
54.514418
 51
99.935932
  0
ARC
  8
daiko
 10
0.872866
 20
5.087425
 30
0.000000
 40
1.077158
 50
101.856526
 51
108.618699
  0
LINE
  8
daiko
 10
0.202225
 20
6.225070
 30
0.000000
 11
0.438788
 21
6.088490
 31
0.000000
  0
LINE
  8
daiko
 10
2.636758
 20
4.819491
 30
0.000000
 11
2.878662
 21
4.679828
 31
0.000000
  0
ARC
  8
daiko
 10
2.780640
 20
4.529994
 30
0.000000
 40
0.179234
 50
1.676759
 51
56.874486
  0
ARC
  8
daiko
 10
1.443056
 20
4.504470
 30
0.000000
 40
1.517054
 50
316.993952
 51
1.162121
  0
ARC
  8
daiko
 10
2.452556
 20
3.537498
 30
0.000000
 40
0.120714
 50
265.118285
 51
325.844977
  0
ARC
  8
daiko
 10
2.469839
 20
3.803684
 30
0.000000
 40
0.387443
 50
250.272554
 51
265.921602
  0
ARC
  8
daiko
 10
0.742640
 20
4.645007
 30
0.000000
 40
0.282978
 50
215.230317
 51
243.814965
  0
LINE
  8
daiko
 10
3.302897
 20
0.035523
 30
0.000000
 11
3.323199
 21
2.934481
 31
0.000000
  0
LINE
  8
daiko
 10
3.323199
 20
2.934481
 30
0.000000
 11
2.587670
 21
3.359139
 31
0.000000
  0
LINE
  8
daiko
 10
2.499477
 20
3.377955
 30
0.000000
 11
2.214298
 21
3.312084
 31
0.000000
  0
LINE
  8
daiko
 10
2.082008
 20
3.340307
 30
0.000000
 11
2.020526
 21
3.375804
 31
0.000000
  0
LINE
  8
daiko
 10
2.084165
 20
3.432833
 30
0.000000
 11
2.004390
 21
3.478891
 31
0.000000
  0
LINE
  8
daiko
 10
2.172359
 20
3.414017
 30
0.000000
 11
2.301755
 21
3.443905
 31
0.000000
  0
ARC
  8
daiko
 10
2.152756
 20
3.538232
 30
0.000000
 40
0.125752
 50
236.945083
 51
278.968210
  0
ARC
  8
daiko
 10
2.184894
 20
3.498406
 30
0.000000
 40
0.188628
 50
236.945076
 51
278.968217
  0
ARC
  8
daiko
 10
2.519080
 20
3.253740
 30
0.000000
 40
0.125752
 50
56.945083
 51
98.968210
  0
LINE
  8
daiko
 10
2.552449
 20
3.469725
 30
0.000000
 11
3.337270
 21
3.018711
 31
0.000000
  0
LINE
  8
daiko
 10
3.404407
 20
2.887596
 30
0.000000
 11
3.404407
 21
2.143246
 31
0.000000
  0
ARC
  8
daiko
 10
3.222011
 20
2.876946
 30
0.000000
 40
0.182706
 50
3.341489
 51
50.887950
  0
ARC
  8
daiko
 10
3.621471
 20
2.143246
 30
0.000000
 40
0.217064
 50
180.000000
 51
283.561910
  0
ARC
  8
daiko
 10
3.540262
 20
2.120268
 30
0.000000
 40
0.217064
 50
180.000000
 51
270.000000
  0
ARC
  8
daiko
 10
3.515059
 20
2.332227
 30
0.000000
 40
0.429762
 50
273.362001
 51
291.418076
  0
LINE
  8
daiko
 10
3.254171
 20
0.007392
 30
0.000000
 11
0.915366
 21
1.357701
 31
0.000000
  0
LINE
  8
daiko
 10
0.866641
 20
1.442096
 30
0.000000
 11
0.866641
 21
4.238827
 31
0.000000
  0
LINE
  8
daiko
 10
0.749152
 20
4.310711
 30
0.000000
 11
0.749152
 21
3.410756
 31
0.000000
  0
LINE
  8
daiko
 10
0.827478
 20
4.262784
 30
0.000000
 11
0.827478
 21
3.378833
 31
0.000000
  0
ARC
  8
daiko
 10
0.974183
 20
1.447922
 30
0.000000
 40
0.107699
 50
183.101069
 51
236.898931
  0
ARC
  8
daiko
 10
0.963545
 20
3.400115
 30
0.000000
 40
0.214657
 50
177.158545
 51
243.164144
  0
ARC
  8
daiko
 10
1.080623
 20
3.368192
 30
0.000000
 40
0.253368
 50
177.592959
 51
212.376470
  0
ARC
  8
daiko
 10
0.050112
 20
6.154293
 30
0.000000
 40
0.050112
 50
49.226727
 51
194.979895
  0
ARC
  8
daiko
 10
0.165041
 20
6.166894
 30
0.000000
 40
0.069044
 50
57.415088
 51
94.390401
  0
LINE
  8
daiko
 10
45.266180
 20
18.587374
 30
0.000000
 11
0.032312
 21
6.201841
 31
0.000000
  0
LINE
  8
daiko
 10
0.651551
 20
6.141602
 30
0.000000
 11
45.582148
 21
18.471807
 31
0.000000
  0
LINE
  8
daiko
 10
2.517372
 20
4.786664
 30
0.000000
 11
47.500579
 21
17.313764
 31
0.000000
  0
LINE
  8
daiko
 10
47.741539
 20
17.170263
 30
0.000000
 11
2.759275
 21
4.647001
 31
0.000000
  0
LINE
  8
daiko
 10
2.589828
 20
3.451665
 30
0.000000
 11
47.365574
 21
16.056022
 31
0.000000
  0
LINE
  8
daiko
 10
3.671996
 20
1.932144
 30
0.000000
 11
10.985899
 21
4.001544
 31
0.000000
  0
LINE
  8
daiko
 10
11.091168
 20
4.140775
 30
0.000000
 11
11.091168
 21
5.010682
 31
0.000000
  0
LINE
  8
daiko
 10
10.960619
 20
5.171753
 30
0.000000
 11
10.160716
 21
5.582867
 31
0.000000
  0
LINE
  8
daiko
 10
12.669262
 20
5.654271
 30
0.000000
 11
11.871275
 21
6.064389
 31
0.000000
  0
LINE
  8
daiko
 10
12.796913
 20
5.494691
 30
0.000000
 11
12.796913
 21
5.001131
 31
0.000000
  0
LINE
  8
daiko
 10
12.696579
 20
5.524915
 30
0.000000
 11
12.696579
 21
5.242646
 31
0.000000
  0
LINE
  8
daiko
 10
12.696579
 20
5.524915
 30
0.000000
 11
12.604713
 21
5.365798
 31
0.000000
  0
LINE
  8
daiko
 10
12.669262
 20
5.654271
 30
0.000000
 11
12.549671
 21
5.421577
 31
0.000000
  0
ARC
  8
daiko
 10
12.618952
 20
5.483182
 30
0.000000
 40
0.178333
 50
3.700322
 51
73.613734
  0
ARC
  8
daiko
 10
10.911823
 20
4.998761
 30
0.000000
 40
0.179742
 50
3.802736
 51
74.247750
  0
ARC
  8
daiko
 10
10.946459
 20
4.140775
 30
0.000000
 40
0.144709
 50
285.815789
 51
0.000000
  0
LINE
  8
daiko
 10
11.306581
 20
4.972011
 30
0.000000
 11
12.023530
 21
5.174532
 31
0.000000
  0
LINE
  8
daiko
 10
11.299330
 20
4.888429
 30
0.000000
 11
12.162461
 21
5.132244
 31
0.000000
  0
LINE
  8
daiko
 10
11.306581
 20
4.972011
 30
0.000000
 11
11.037240
 21
5.127515
 31
0.000000
  0
LINE
  8
daiko
 10
11.299330
 20
4.888429
 30
0.000000
 11
11.091168
 21
5.010682
 31
0.000000
  0
LINE
  8
daiko
 10
3.384638
 20
2.960219
 30
0.000000
 11
11.068572
 21
5.086719
 31
0.000000
  0
ARC
  8
daiko
 10
3.273777
 20
0.029697
 30
0.000000
 40
0.029697
 50
228.685764
 51
11.314236
  0
LINE
  8
daiko
 10
3.288625
 20
0.003979
 30
0.000000
 11
47.357943
 21
12.583116
 31
0.000000
  0
LINE
  8
daiko
 10
47.357943
 20
12.583116
 30
0.000000
 11
47.357943
 21
14.335289
 31
0.000000
  0
LINE
  8
daiko
 10
47.435091
 20
14.357174
 30
0.000000
 11
41.809694
 21
12.761334
 31
0.000000
  0
LINE
  8
daiko
 10
41.621502
 20
12.851136
 30
0.000000
 11
41.621502
 21
13.687054
 31
0.000000
  0
LINE
  8
daiko
 10
41.521169
 20
12.976693
 30
0.000000
 11
41.521169
 21
13.717278
 31
0.000000
  0
LINE
  8
daiko
 10
41.521169
 20
13.717278
 30
0.000000
 11
41.354364
 21
13.428364
 31
0.000000
  0
LINE
  8
daiko
 10
41.354364
 20
13.428364
 30
0.000000
 11
40.123920
 21
13.080792
 31
0.000000
  0
LINE
  8
daiko
 10
40.131171
 20
13.164374
 30
0.000000
 11
41.288733
 21
13.491359
 31
0.000000
  0
LINE
  8
daiko
 10
41.493851
 20
13.846634
 30
0.000000
 11
41.288733
 21
13.491359
 31
0.000000
  0
LINE
  8
daiko
 10
40.131171
 20
13.164374
 30
0.000000
 11
39.859870
 21
13.321009
 31
0.000000
  0
LINE
  8
daiko
 10
39.083818
 20
13.724599
 30
0.000000
 11
39.818574
 21
13.344852
 31
0.000000
  0
LINE
  8
daiko
 10
39.915758
 20
13.203045
 30
0.000000
 11
39.915758
 21
12.333138
 31
0.000000
  0
LINE
  8
daiko
 10
39.810489
 20
12.193907
 30
0.000000
 11
12.783389
 21
4.511731
 31
0.000000
  0
LINE
  8
daiko
 10
12.758212
 20
5.594579
 30
0.000000
 11
39.893162
 21
13.279082
 31
0.000000
  0
ARC
  8
daiko
 10
39.759057
 20
13.199858
 30
0.000000
 40
0.156734
 50
1.165034
 51
67.682758
  0
ARC
  8
daiko
 10
39.771049
 20
12.333138
 30
0.000000
 40
0.144709
 50
285.815809
 51
0.000000
  0
LINE
  8
daiko
 10
40.123920
 20
13.080792
 30
0.000000
 11
39.915758
 21
13.203045
 31
0.000000
  0
LINE
  8
daiko
 10
41.521169
 20
13.717278
 30
0.000000
 11
41.493851
 21
13.846634
 31
0.000000
  0
ARC
  8
daiko
 10
41.443541
 20
13.675545
 30
0.000000
 40
0.178333
 50
3.700322
 51
73.613734
  0
LINE
  8
daiko
 10
41.493851
 20
13.846634
 30
0.000000
 11
40.794350
 21
14.206136
 31
0.000000
  0
LINE
  8
daiko
 10
41.582801
 20
13.786942
 30
0.000000
 11
47.412495
 21
15.412530
 31
0.000000
  0
LINE
  8
daiko
 10
46.497151
 20
15.811549
 30
0.000000
 11
47.351404
 21
15.472711
 31
0.000000
  0
LINE
  8
daiko
 10
47.435091
 20
15.336493
 30
0.000000
 11
47.435091
 21
14.357174
 31
0.000000
  0
ARC
  8
daiko
 10
47.278177
 20
15.333907
 30
0.000000
 40
0.156936
 50
0.944191
 51
62.185703
  0
ARC
  8
daiko
 10
41.767769
 20
13.006120
 30
0.000000
 40
0.248350
 50
186.805033
 51
279.718877
  0
ARC
  8
daiko
 10
41.738372
 20
12.886056
 30
0.000000
 40
0.121975
 50
196.635853
 51
250.997223
  0
ARC
  8
daiko
 10
46.493334
 20
17.018071
 30
0.000000
 40
1.298592
 50
312.196974
 51
1.759228
  0
ARC
  8
daiko
 10
46.372320
 20
17.009412
 30
0.000000
 40
1.352246
 50
314.357235
 51
1.274567
  0
ARC
  8
daiko
 10
47.627307
 20
17.052452
 30
0.000000
 40
0.164099
 50
1.915328
 51
45.883552
  0
ARC
  8
daiko
 10
47.559892
 20
17.033915
 30
0.000000
 40
0.164433
 50
1.943382
 51
45.751758
  0
LINE
  8
daiko
 10
47.741539
 20
17.170263
 30
0.000000
 11
47.500579
 21
17.313764
 31
0.000000
  0
LINE
  8
daiko
 10
47.433694
 20
17.295204
 30
0.000000
 11
47.674629
 21
17.151702
 31
0.000000
  0
ARC
  8
daiko
 10
45.073501
 20
15.926140
 30
0.000000
 40
2.795749
 50
29.757743
 51
58.988575
  0
ARC
  8
daiko
 10
45.005303
 20
15.906284
 30
0.000000
 40
2.797532
 50
29.767435
 51
58.983892
  0
ARC
  8
daiko
 10
45.897199
 20
17.457240
 30
0.000000
 40
1.062358
 50
54.514418
 51
107.251009
  0
ARC
  8
daiko
 10
45.830116
 20
17.438794
 30
0.000000
 40
1.062358
 50
54.514418
 51
103.498103
  0
LINE
  8
daiko
 10
45.242416
 20
18.560339
 30
0.000000
 11
45.455523
 21
18.437302
 31
0.000000
  0
LINE
  8
daiko
 10
45.522801
 20
18.455635
 30
0.000000
 11
45.309499
 21
18.578785
 31
0.000000
  0
ARC
  8
daiko
 10
45.277143
 20
18.529133
 30
0.000000
 40
0.059264
 50
56.909734
 51
100.660256
  0
ARC
  8
daiko
 10
45.209664
 20
18.509922
 30
0.000000
 40
0.060122
 50
56.991011
 51
97.963614
  0
ARC
  8
daiko
 10
11.894384
 20
4.268541
 30
0.000000
 40
0.433669
 50
228.835943
 51
280.072572
  0
ARC
  8
daiko
 10
11.880787
 20
4.345086
 30
0.000000
 40
0.511412
 50
280.072572
 51
303.633092
  0
ARC
  8
daiko
 10
11.842370
 20
4.402836
 30
0.000000
 40
0.580773
 50
303.633092
 51
324.766710
  0
ARC
  8
daiko
 10
11.770943
 20
4.453284
 30
0.000000
 40
0.668218
 50
324.766710
 51
330.968462
  0
ARC
  8
daiko
 10
11.920881
 20
4.489215
 30
0.000000
 40
0.511412
 50
35.546981
 51
48.835943
  0
ARC
  8
daiko
 10
11.972053
 20
4.547741
 30
0.000000
 40
0.433669
 50
48.835943
 51
100.072572
  0
ARC
  8
daiko
 10
11.985650
 20
4.471197
 30
0.000000
 40
0.511412
 50
100.072572
 51
123.633092
  0
ARC
  8
daiko
 10
12.024067
 20
4.413447
 30
0.000000
 40
0.580773
 50
123.633092
 51
144.766710
  0
ARC
  8
daiko
 10
12.095493
 20
4.362999
 30
0.000000
 40
0.668218
 50
144.766710
 51
184.141805
  0
ARC
  8
daiko
 10
12.008276
 20
4.356683
 30
0.000000
 40
0.580773
 50
184.141805
 51
205.275423
  0
ARC
  8
daiko
 10
11.945555
 20
4.327068
 30
0.000000
 40
0.511412
 50
205.275423
 51
228.835943
  0
ARC
  8
daiko
 10
11.955245
 20
4.235413
 30
0.000000
 40
0.302885
 50
228.855680
 51
280.559274
  0
ARC
  8
daiko
 10
11.944459
 20
4.293276
 30
0.000000
 40
0.361744
 50
280.559274
 51
304.181378
  0
ARC
  8
daiko
 10
11.914819
 20
4.336920
 30
0.000000
 40
0.414502
 50
304.181378
 51
325.208512
  0
ARC
  8
daiko
 10
11.859995
 20
4.375011
 30
0.000000
 40
0.481259
 50
325.208512
 51
326.142634
  0
ARC
  8
daiko
 10
11.974296
 20
4.402399
 30
0.000000
 40
0.361744
 50
43.733824
 51
48.855680
  0
ARC
  8
daiko
 10
12.013023
 20
4.446723
 30
0.000000
 40
0.302885
 50
48.855680
 51
100.559274
  0
ARC
  8
daiko
 10
12.023809
 20
4.388860
 30
0.000000
 40
0.361744
 50
100.559274
 51
124.181378
  0
ARC
  8
daiko
 10
12.053449
 20
4.345216
 30
0.000000
 40
0.414502
 50
124.181378
 51
145.208512
  0
ARC
  8
daiko
 10
12.108273
 20
4.307125
 30
0.000000
 40
0.481259
 50
145.208512
 51
184.206442
  0
ARC
  8
daiko
 10
12.041695
 20
4.302228
 30
0.000000
 40
0.414502
 50
184.206442
 51
205.233576
  0
ARC
  8
daiko
 10
11.993972
 20
4.279737
 30
0.000000
 40
0.361744
 50
205.233576
 51
228.855680
  0
ARC
  8
daiko
 10
12.262275
 20
7.233845
 30
0.000000
 40
2.083442
 50
225.026810
 51
253.507122
  0
ARC
  8
daiko
 10
11.371068
 20
2.602077
 30
0.000000
 40
2.651046
 50
72.631204
 51
83.508294
  0
ARC
  8
daiko
 10
12.079700
 20
4.878628
 30
0.000000
 40
0.266778
 50
359.595369
 51
71.927153
  0
ARC
  8
daiko
 10
12.105013
 20
4.856529
 30
0.000000
 40
0.242303
 50
286.723702
 51
4.785737
  0
ARC
  8
daiko
 10
12.061715
 20
5.258426
 30
0.000000
 40
0.643948
 50
257.844257
 51
280.108558
  0
ARC
  8
daiko
 10
11.049362
 20
0.802899
 30
0.000000
 40
3.925189
 50
77.093128
 51
79.233612
  0
ARC
  8
daiko
 10
12.277046
 20
6.301798
 30
0.000000
 40
2.208372
 50
253.335888
 51
263.906821
  0
ARC
  8
daiko
 10
12.147958
 20
4.806974
 30
0.000000
 40
0.708939
 50
261.456395
 51
322.605345
  0
ARC
  8
daiko
 10
12.134725
 20
4.861025
 30
0.000000
 40
0.713675
 50
64.147879
 51
95.322707
  0
ARC
  8
daiko
 10
12.080831
 20
6.853991
 30
0.000000
 40
1.281456
 50
245.684972
 51
269.926592
  0
ARC
  8
daiko
 10
12.072591
 20
7.018136
 30
0.000000
 40
1.429622
 50
232.880042
 51
248.696037
  0
ARC
  8
daiko
 10
11.978197
 20
4.802606
 30
0.000000
 40
0.842441
 50
2.778365
 51
56.275297
  0
ARC
  8
daiko
 10
12.183027
 20
4.745194
 30
0.000000
 40
0.644158
 50
325.077521
 51
8.773087
  0
LINE
  8
daiko
 10
11.378639
 20
5.925712
 30
0.000000
 11
11.984015
 21
5.576198
 31
0.000000
  0
LINE
  8
daiko
 10
1.627923
 20
5.299181
 30
0.000000
 11
2.077365
 21
2.427825
 31
0.000000
  0
LINE
  8
daiko
 10
1.294907
 20
2.462260
 30
0.000000
 11
0.864867
 21
5.209655
 31
0.000000
  0
LINE
  8
daiko
 10
1.718164
 20
5.307503
 30
0.000000
 11
2.151067
 21
2.541817
 31
0.000000
  0
LINE
  8
daiko
 10
2.151067
 20
2.541817
 30
0.000000
 11
2.842032
 21
2.739471
 31
0.000000
  0
LINE
  8
daiko
 10
2.077365
 20
2.427825
 30
0.000000
 11
2.768330
 21
2.625478
 31
0.000000
  0
LINE
  8
daiko
 10
2.768330
 20
2.625478
 30
0.000000
 11
2.947247
 21
1.482435
 31
0.000000
  0
LINE
  8
daiko
 10
2.842032
 20
2.739471
 30
0.000000
 11
3.037488
 21
1.490758
 31
0.000000
  0
LINE
  8
daiko
 10
2.184191
 20
1.392910
 30
0.000000
 11
2.021817
 21
2.430270
 31
0.000000
  0
LINE
  8
daiko
 10
2.077365
 20
2.427825
 30
0.000000
 11
1.294907
 21
2.462260
 31
0.000000
  0
ARC
  8
daiko
 10
3.139781
 20
1.527695
 30
0.000000
 40
0.965049
 50
188.028524
 51
219.371207
  0
ARC
  8
daiko
 10
2.653181
 20
1.100257
 30
0.000000
 40
0.318484
 50
215.453320
 51
241.212907
  0
ARC
  8
daiko
 10
2.636519
 20
1.023859
 30
0.000000
 40
0.244513
 50
236.006934
 51
315.759257
  0
ARC
  8
daiko
 10
2.388202
 20
1.231179
 30
0.000000
 40
0.567591
 50
318.255121
 51
354.614585
  0
ARC
  8
daiko
 10
1.998806
 20
1.311298
 30
0.000000
 40
0.963757
 50
352.044380
 51
10.228430
  0
ARC
  8
daiko
 10
2.478444
 20
1.239502
 30
0.000000
 40
0.567591
 50
318.255121
 51
354.614585
  0
ARC
  8
daiko
 10
2.089048
 20
1.319621
 30
0.000000
 40
0.963757
 50
352.044380
 51
10.228430
  0
LINE
  8
daiko
 10
2.661581
 20
0.780634
 30
0.000000
 11
2.840550
 21
0.815760
 31
0.000000
  0
ARC
  8
daiko
 10
2.726760
 20
1.032182
 30
0.000000
 40
0.244513
 50
297.734319
 51
315.759257
  0
LINE
  8
daiko
 10
2.842032
 20
2.739471
 30
0.000000
 11
2.115122
 21
2.771461
 31
0.000000
  0
ARC
  8
daiko
 10
1.946409
 20
5.381476
 30
0.000000
 40
1.097537
 50
163.334616
 51
192.713594
  0
ARC
  8
daiko
 10
1.198446
 20
5.599606
 30
0.000000
 40
0.318484
 50
136.579320
 51
162.338907
  0
ARC
  8
daiko
 10
1.159235
 20
5.667258
 30
0.000000
 40
0.244513
 50
62.032969
 51
141.785293
  0
ARC
  8
daiko
 10
0.876022
 20
5.260779
 30
0.000000
 40
0.738741
 50
25.572758
 51
57.412073
  0
ARC
  8
daiko
 10
0.674324
 20
5.160994
 30
0.000000
 40
0.963757
 50
7.563797
 51
25.747846
  0
ARC
  8
daiko
 10
1.249300
 20
5.630343
 30
0.000000
 40
0.291160
 50
57.903548
 51
82.195846
  0
ARC
  8
daiko
 10
0.954737
 20
5.278466
 30
0.000000
 40
0.748391
 50
25.385966
 51
53.107546
  0
ARC
  8
daiko
 10
0.762793
 20
5.180644
 30
0.000000
 40
0.963757
 50
7.563797
 51
25.747846
  0
LINE
  8
daiko
 10
1.159235
 20
5.911771
 30
0.000000
 11
1.288836
 21
5.918807
 31
0.000000
  0
ARC
  8
daiko
 10
2.618291
 20
1.610969
 30
0.000000
 40
0.377464
 50
135.725784
 51
160.080518
  0
ARC
  8
daiko
 10
2.817152
 20
1.538906
 30
0.000000
 40
0.588978
 50
160.080518
 51
176.692901
  0
ARC
  8
daiko
 10
3.115149
 20
1.521686
 30
0.000000
 40
0.887473
 50
176.692901
 51
203.727469
  0
ARC
  8
daiko
 10
2.841886
 20
1.401576
 30
0.000000
 40
0.588978
 50
203.727469
 51
220.339851
  0
ARC
  8
daiko
 10
2.680666
 20
1.264659
 30
0.000000
 40
0.377464
 50
220.339851
 51
244.694586
  0
ARC
  8
daiko
 10
2.596498
 20
1.086643
 30
0.000000
 40
0.180553
 50
244.694586
 51
315.725784
  0
ARC
  8
daiko
 10
2.455509
 20
1.224105
 30
0.000000
 40
0.377464
 50
315.725784
 51
340.080518
  0
ARC
  8
daiko
 10
2.256648
 20
1.296168
 30
0.000000
 40
0.588978
 50
340.080518
 51
356.692901
  0
ARC
  8
daiko
 10
1.958651
 20
1.313387
 30
0.000000
 40
0.887473
 50
356.692901
 51
23.727469
  0
ARC
  8
daiko
 10
2.231914
 20
1.433498
 30
0.000000
 40
0.588978
 50
23.727469
 51
40.339851
  0
ARC
  8
daiko
 10
2.393134
 20
1.570415
 30
0.000000
 40
0.377464
 50
40.339851
 51
64.694586
  0
ARC
  8
daiko
 10
2.477302
 20
1.748431
 30
0.000000
 40
0.180553
 50
64.694586
 51
135.725784
  0
ARC
  8
daiko
 10
1.349821
 20
5.003491
 30
0.000000
 40
0.377464
 50
135.725784
 51
160.080518
  0
ARC
  8
daiko
 10
1.548681
 20
4.931428
 30
0.000000
 40
0.588978
 50
160.080518
 51
176.692901
  0
ARC
  8
daiko
 10
1.846678
 20
4.914209
 30
0.000000
 40
0.887473
 50
176.692901
 51
203.727469
  0
ARC
  8
daiko
 10
1.573416
 20
4.794098
 30
0.000000
 40
0.588978
 50
203.727469
 51
220.339851
  0
ARC
  8
daiko
 10
1.412195
 20
4.657181
 30
0.000000
 40
0.377464
 50
220.339851
 51
244.694586
  0
ARC
  8
daiko
 10
1.328027
 20
4.479165
 30
0.000000
 40
0.180553
 50
244.694586
 51
315.725784
  0
ARC
  8
daiko
 10
1.187038
 20
4.616627
 30
0.000000
 40
0.377464
 50
315.725784
 51
340.080518
  0
ARC
  8
daiko
 10
0.988178
 20
4.688690
 30
0.000000
 40
0.588978
 50
340.080518
 51
356.692901
  0
ARC
  8
daiko
 10
0.690181
 20
4.705909
 30
0.000000
 40
0.887473
 50
356.692901
 51
23.727469
  0
ARC
  8
daiko
 10
0.963443
 20
4.826020
 30
0.000000
 40
0.588978
 50
23.727469
 51
40.339851
  0
ARC
  8
daiko
 10
1.124663
 20
4.962937
 30
0.000000
 40
0.377464
 50
40.339851
 51
64.694586
  0
ARC
  8
daiko
 10
1.208832
 20
5.140953
 30
0.000000
 40
0.180553
 50
64.694586
 51
135.725784
  0
ARC
  8
daiko
 10
2.475244
 20
4.433971
 30
0.000000
 40
0.232888
 50
156.140645
 51
180.515944
  0
ARC
  8
daiko
 10
2.603219
 20
4.435123
 30
0.000000
 40
0.360868
 50
180.515944
 51
197.243619
  0
ARC
  8
daiko
 10
2.775346
 20
4.488549
 30
0.000000
 40
0.541096
 50
197.243619
 51
224.532526
  0
ARC
  8
daiko
 10
2.646870
 20
4.362153
 30
0.000000
 40
0.360868
 50
224.532526
 51
241.260202
  0
ARC
  8
daiko
 10
2.585333
 20
4.249938
 30
0.000000
 40
0.232888
 50
241.260202
 51
265.635501
  0
ARC
  8
daiko
 10
2.576225
 20
4.130598
 30
0.000000
 40
0.113201
 50
265.635501
 51
336.140645
  0
ARC
  8
daiko
 10
2.466766
 20
4.179011
 30
0.000000
 40
0.232888
 50
336.140645
 51
0.515944
  0
ARC
  8
daiko
 10
2.338790
 20
4.177858
 30
0.000000
 40
0.360868
 50
0.515944
 51
17.243619
  0
ARC
  8
daiko
 10
2.166664
 20
4.124432
 30
0.000000
 40
0.541096
 50
17.243619
 51
44.532526
  0
ARC
  8
daiko
 10
2.295139
 20
4.250828
 30
0.000000
 40
0.360868
 50
44.532526
 51
61.260202
  0
ARC
  8
daiko
 10
2.356676
 20
4.363043
 30
0.000000
 40
0.232888
 50
61.260202
 51
85.635501
  0
ARC
  8
daiko
 10
2.365785
 20
4.482383
 30
0.000000
 40
0.113201
 50
85.635501
 51
156.140645
  0
ARC
  8
daiko
 10
0.363822
 20
5.647701
 30
0.000000
 40
0.232888
 50
156.140645
 51
180.515944
  0
ARC
  8
daiko
 10
0.491798
 20
5.648853
 30
0.000000
 40
0.360868
 50
180.515944
 51
197.243619
  0
ARC
  8
daiko
 10
0.663924
 20
5.702279
 30
0.000000
 40
0.541096
 50
197.243619
 51
224.532526
  0
ARC
  8
daiko
 10
0.535449
 20
5.575883
 30
0.000000
 40
0.360868
 50
224.532526
 51
241.260202
  0
ARC
  8
daiko
 10
0.473912
 20
5.463668
 30
0.000000
 40
0.232888
 50
241.260202
 51
265.635501
  0
ARC
  8
daiko
 10
0.464803
 20
5.344328
 30
0.000000
 40
0.113201
 50
265.635501
 51
336.140645
  0
ARC
  8
daiko
 10
0.355345
 20
5.392741
 30
0.000000
 40
0.232888
 50
336.140645
 51
0.515944
  0
ARC
  8
daiko
 10
0.227369
 20
5.391588
 30
0.000000
 40
0.360868
 50
0.515944
 51
17.243619
  0
ARC
  8
daiko
 10
0.055243
 20
5.338163
 30
0.000000
 40
0.541096
 50
17.243619
 51
44.532526
  0
ARC
  8
daiko
 10
0.183718
 20
5.464559
 30
0.000000
 40
0.360868
 50
44.532526
 51
61.260202
  0
ARC
  8
daiko
 10
0.245255
 20
5.576774
 30
0.000000
 40
0.232888
 50
61.260202
 51
85.635501
  0
ARC
  8
daiko
 10
0.254364
 20
5.696114
 30
0.000000
 40
0.113201
 50
85.635501
 51
156.140645
  0
ARC
  8
daiko
 10
4.108532
 20
1.917087
 30
0.000000
 40
0.103179
 50
33.509011
 51
98.810702
  0
ARC
  8
daiko
 10
4.124851
 20
1.765824
 30
0.000000
 40
0.255254
 50
97.229556
 51
133.194579
  0
ARC
  8
daiko
 10
4.285389
 20
1.565949
 30
0.000000
 40
0.511180
 50
130.978175
 51
167.585393
  0
ARC
  8
daiko
 10
4.090734
 20
1.610208
 30
0.000000
 40
0.311564
 50
167.838507
 51
194.317152
  0
ARC
  8
daiko
 10
3.911626
 20
1.565818
 30
0.000000
 40
0.127048
 50
194.894220
 51
236.828996
  0
ARC
  8
daiko
 10
3.884068
 20
1.808727
 30
0.000000
 40
0.351765
 50
263.150027
 51
28.032903
  0
ARC
  8
daiko
 10
47.047177
 20
14.020331
 30
0.000000
 40
0.103179
 50
33.509011
 51
98.810702
  0
ARC
  8
daiko
 10
47.063496
 20
13.869068
 30
0.000000
 40
0.255254
 50
97.229556
 51
133.194579
  0
ARC
  8
daiko
 10
47.224035
 20
13.669193
 30
0.000000
 40
0.511180
 50
130.978175
 51
167.585393
  0
ARC
  8
daiko
 10
47.029379
 20
13.713452
 30
0.000000
 40
0.311564
 50
167.838507
 51
194.317152
  0
ARC
  8
daiko
 10
46.850271
 20
13.669062
 30
0.000000
 40
0.127048
 50
194.894220
 51
236.828996
  0
ARC
  8
daiko
 10
46.822713
 20
13.911971
 30
0.000000
 40
0.351765
 50
263.150027
 51
28.032903
  0
TEXT
  8
daiko
 10
0.000000
 20
-10.000000
 30
0.000000
 40
4.000000
  1
LZY-91362NTV
  7
BIGFONT
  0
TEXT
  8
daiko
 10
0.000000
 20
-14.000000
 30
0.000000
 40
3.000000
  1
LED9.5W        4000K
  7
BIGFONT
  0
TEXT
  8
daiko
 10
0.000000
 20
-18.000000
 30
0.000000
 40
3.000000
  1
演色性 Ra96    ｼﾙﾊﾞｰ
  7
BIGFONT
  0
TEXT
  8
daiko
 10
0.000000
 20
-22.000000
 30
0.000000
 40
3.000000
  1
巾最大81 長761 高最大69mm
  7
BIGFONT
  0
ENDSEC
  0
EOF
