  0
SECTION
  2
HEADER
  9
$EXTMIN
 10
0.000000
 20
-23.000000
 30
0.000000
  9
$EXTMAX
 10
47.997371
 20
15.567079
 30
0.000000
  0
ENDSEC
  0
SECTION
  2
TABLES
  0
TABLE
  2
LTYPE
 70
     1
  0
LTYPE
  2
CONTINUOUS
 70
     0
  3
Solid line
 72
    65
 73
     0
 40
0.000000
  0
ENDTAB
  0
TABLE
  2
STYLE
 70
     2
  0
STYLE
  2
BIGFONT
 70
     0
 40
1.000000
 41
1.000000
 50
0.000000
 71
     0
 42
0.000000
  3
txt
  4
bigfont
  0
STYLE
  2
STANDARD
 70
     0
 40
0.000000
 41
1.000000
 50
0.000000
 71
     0
 42
3.500000
  3
txt.shx
  4
bigfont.shx
  0
ENDTAB
  0
TABLE
  2
LAYER
 70
     1
  0
LAYER
  2
daiko
 70
     0
 62
     7
  6
CONTINUOUS
  0
ENDTAB
  0
ENDSEC
  0
SECTION
  2
ENTITIES
  0
LINE
  8
daiko
 10
45.626927
 20
13.781790
 30
0.000000
 11
45.363623
 21
13.917113
 31
0.000000
  0
LINE
  8
daiko
 10
45.674621
 20
13.722167
 30
0.000000
 11
45.674621
 21
13.537760
 31
0.000000
  0
LINE
  8
daiko
 10
45.637134
 20
13.733459
 30
0.000000
 11
45.637134
 21
13.627996
 31
0.000000
  0
LINE
  8
daiko
 10
45.637134
 20
13.733459
 30
0.000000
 11
45.602810
 21
13.674009
 31
0.000000
  0
LINE
  8
daiko
 10
45.626927
 20
13.781790
 30
0.000000
 11
45.582245
 21
13.694850
 31
0.000000
  0
ARC
  8
daiko
 10
45.608130
 20
13.717867
 30
0.000000
 40
0.066630
 50
3.700322
 51
73.613734
  0
LINE
  8
daiko
 10
45.117794
 20
13.530053
 30
0.000000
 11
45.383557
 21
13.601977
 31
0.000000
  0
LINE
  8
daiko
 10
45.115085
 20
13.498825
 30
0.000000
 11
45.437573
 21
13.586747
 31
0.000000
  0
LINE
  8
daiko
 10
45.117794
 20
13.530053
 30
0.000000
 11
45.009424
 21
13.593897
 31
0.000000
  0
LINE
  8
daiko
 10
45.115085
 20
13.498825
 30
0.000000
 11
45.032326
 21
13.548626
 31
0.000000
  0
ARC
  8
daiko
 10
45.337413
 20
13.264045
 30
0.000000
 40
0.162030
 50
228.835943
 51
280.072572
  0
ARC
  8
daiko
 10
45.332332
 20
13.292644
 30
0.000000
 40
0.191077
 50
280.072572
 51
303.633092
  0
ARC
  8
daiko
 10
45.317979
 20
13.314221
 30
0.000000
 40
0.216992
 50
303.633092
 51
324.766710
  0
ARC
  8
daiko
 10
45.291292
 20
13.333070
 30
0.000000
 40
0.249664
 50
324.766710
 51
330.968462
  0
ARC
  8
daiko
 10
45.347313
 20
13.346494
 30
0.000000
 40
0.191077
 50
35.546981
 51
48.835943
  0
ARC
  8
daiko
 10
45.366432
 20
13.368362
 30
0.000000
 40
0.162030
 50
48.835943
 51
100.072572
  0
ARC
  8
daiko
 10
45.371512
 20
13.339763
 30
0.000000
 40
0.191077
 50
100.072572
 51
123.633092
  0
ARC
  8
daiko
 10
45.385866
 20
13.318186
 30
0.000000
 40
0.216992
 50
123.633092
 51
144.766710
  0
ARC
  8
daiko
 10
45.412552
 20
13.299337
 30
0.000000
 40
0.249664
 50
144.766710
 51
184.141805
  0
ARC
  8
daiko
 10
45.379966
 20
13.296977
 30
0.000000
 40
0.216992
 50
184.141805
 51
205.275423
  0
ARC
  8
daiko
 10
45.356532
 20
13.285912
 30
0.000000
 40
0.191077
 50
205.275423
 51
228.835943
  0
ARC
  8
daiko
 10
45.360152
 20
13.251667
 30
0.000000
 40
0.113166
 50
228.855680
 51
280.559274
  0
ARC
  8
daiko
 10
45.356122
 20
13.273286
 30
0.000000
 40
0.135157
 50
280.559274
 51
304.181378
  0
ARC
  8
daiko
 10
45.345048
 20
13.289593
 30
0.000000
 40
0.154869
 50
304.181378
 51
325.208512
  0
ARC
  8
daiko
 10
45.324564
 20
13.303825
 30
0.000000
 40
0.179811
 50
325.208512
 51
326.142634
  0
ARC
  8
daiko
 10
45.367270
 20
13.314058
 30
0.000000
 40
0.135157
 50
43.733824
 51
48.855680
  0
ARC
  8
daiko
 10
45.381739
 20
13.330618
 30
0.000000
 40
0.113166
 50
48.855680
 51
100.559274
  0
ARC
  8
daiko
 10
45.385769
 20
13.308999
 30
0.000000
 40
0.135157
 50
100.559274
 51
124.181378
  0
ARC
  8
daiko
 10
45.396844
 20
13.292693
 30
0.000000
 40
0.154869
 50
124.181378
 51
145.208512
  0
ARC
  8
daiko
 10
45.417327
 20
13.278461
 30
0.000000
 40
0.179811
 50
145.208512
 51
184.206442
  0
ARC
  8
daiko
 10
45.392452
 20
13.276631
 30
0.000000
 40
0.154869
 50
184.206442
 51
205.233576
  0
ARC
  8
daiko
 10
45.374621
 20
13.268228
 30
0.000000
 40
0.135157
 50
205.233576
 51
228.855680
  0
ARC
  8
daiko
 10
45.474866
 20
14.371961
 30
0.000000
 40
0.778429
 50
227.406070
 51
253.507122
  0
ARC
  8
daiko
 10
45.141888
 20
12.641410
 30
0.000000
 40
0.990501
 50
72.631204
 51
83.508294
  0
ARC
  8
daiko
 10
45.406652
 20
13.491989
 30
0.000000
 40
0.099675
 50
359.595369
 51
71.927153
  0
ARC
  8
daiko
 10
45.416109
 20
13.483732
 30
0.000000
 40
0.090531
 50
286.723702
 51
4.785737
  0
ARC
  8
daiko
 10
45.399932
 20
13.633892
 30
0.000000
 40
0.240596
 50
257.844257
 51
280.108558
  0
ARC
  8
daiko
 10
45.021690
 20
11.969190
 30
0.000000
 40
1.466554
 50
77.093128
 51
79.233612
  0
ARC
  8
daiko
 10
45.480385
 20
14.023723
 30
0.000000
 40
0.825106
 50
253.335888
 51
263.906821
  0
ARC
  8
daiko
 10
45.432155
 20
13.465218
 30
0.000000
 40
0.264878
 50
261.456395
 51
322.605345
  0
ARC
  8
daiko
 10
45.427210
 20
13.485413
 30
0.000000
 40
0.266648
 50
64.147879
 51
95.322707
  0
ARC
  8
daiko
 10
45.407074
 20
14.230037
 30
0.000000
 40
0.478786
 50
245.684972
 51
269.926592
  0
ARC
  8
daiko
 10
45.403996
 20
14.291366
 30
0.000000
 40
0.534144
 50
236.664483
 51
248.696037
  0
ARC
  8
daiko
 10
45.368727
 20
13.463586
 30
0.000000
 40
0.314758
 50
2.778365
 51
56.275297
  0
ARC
  8
daiko
 10
45.445257
 20
13.442135
 30
0.000000
 40
0.240674
 50
325.077521
 51
8.773087
  0
LINE
  8
daiko
 10
45.177623
 20
13.864209
 30
0.000000
 11
45.370901
 21
13.752620
 31
0.000000
  0
LINE
  8
daiko
 10
0.121332
 20
2.261403
 30
0.000000
 11
0.030951
 21
2.313585
 31
0.000000
  0
ARC
  8
daiko
 10
1.283027
 20
2.349215
 30
0.000000
 40
1.283554
 50
182.440157
 51
211.712122
  0
LINE
  8
daiko
 10
0.230815
 20
1.640620
 30
0.000000
 11
0.385855
 21
1.545776
 31
0.000000
  0
LINE
  8
daiko
 10
0.740291
 20
1.354760
 30
0.000000
 11
0.839137
 21
1.297692
 31
0.000000
  0
ARC
  8
daiko
 10
0.873934
 20
1.338599
 30
0.000000
 40
0.053705
 50
229.614377
 51
320.118112
  0
ARC
  8
daiko
 10
0.527270
 20
1.671325
 30
0.000000
 40
0.534093
 50
316.571412
 51
1.168776
  0
ARC
  8
daiko
 10
0.994615
 20
1.680343
 30
0.000000
 40
0.066664
 50
1.613040
 51
56.984192
  0
LINE
  8
daiko
 10
1.030938
 20
1.736242
 30
0.000000
 11
0.940556
 21
1.788424
 31
0.000000
  0
ARC
  8
daiko
 10
-0.067022
 20
1.212365
 30
0.000000
 40
1.160628
 50
29.757743
 51
58.988575
  0
ARC
  8
daiko
 10
0.274929
 20
1.847986
 30
0.000000
 40
0.441028
 50
54.514418
 51
110.381489
  0
ARC
  8
daiko
 10
-0.022416
 20
1.224630
 30
0.000000
 40
1.160628
 50
29.757743
 51
58.988575
  0
ARC
  8
daiko
 10
0.319535
 20
1.860251
 30
0.000000
 40
0.441028
 50
54.514418
 51
99.935932
  0
ARC
  8
daiko
 10
0.326126
 20
1.900796
 30
0.000000
 40
0.402455
 50
101.856526
 51
108.618699
  0
LINE
  8
daiko
 10
0.075557
 20
2.325850
 30
0.000000
 11
0.163943
 21
2.274821
 31
0.000000
  0
LINE
  8
daiko
 10
0.985162
 20
1.800689
 30
0.000000
 11
1.075544
 21
1.748507
 31
0.000000
  0
ARC
  8
daiko
 10
1.038921
 20
1.692525
 30
0.000000
 40
0.066966
 50
1.676759
 51
56.874486
  0
ARC
  8
daiko
 10
0.539164
 20
1.682989
 30
0.000000
 40
0.566811
 50
316.993952
 51
1.162121
  0
ARC
  8
daiko
 10
0.916340
 20
1.321702
 30
0.000000
 40
0.045102
 50
265.118285
 51
325.844977
  0
ARC
  8
daiko
 10
0.922797
 20
1.421157
 30
0.000000
 40
0.144759
 50
250.272554
 51
265.921602
  0
ARC
  8
daiko
 10
0.277470
 20
1.735497
 30
0.000000
 40
0.105728
 50
215.230317
 51
243.814965
  0
LINE
  8
daiko
 10
1.234049
 20
0.013272
 30
0.000000
 11
1.241635
 21
1.096400
 31
0.000000
  0
LINE
  8
daiko
 10
1.241635
 20
1.096400
 30
0.000000
 11
0.966822
 21
1.255063
 31
0.000000
  0
LINE
  8
daiko
 10
0.933870
 20
1.262093
 30
0.000000
 11
0.827320
 21
1.237482
 31
0.000000
  0
LINE
  8
daiko
 10
0.777893
 20
1.248027
 30
0.000000
 11
0.754922
 21
1.261289
 31
0.000000
  0
LINE
  8
daiko
 10
0.778699
 20
1.282597
 30
0.000000
 11
0.748893
 21
1.299806
 31
0.000000
  0
LINE
  8
daiko
 10
0.811651
 20
1.275567
 30
0.000000
 11
0.859996
 21
1.286734
 31
0.000000
  0
ARC
  8
daiko
 10
0.804326
 20
1.321977
 30
0.000000
 40
0.046984
 50
236.945083
 51
278.968210
  0
ARC
  8
daiko
 10
0.816334
 20
1.307097
 30
0.000000
 40
0.070476
 50
236.945076
 51
278.968217
  0
ARC
  8
daiko
 10
0.941195
 20
1.215683
 30
0.000000
 40
0.046984
 50
56.945083
 51
98.968210
  0
LINE
  8
daiko
 10
0.953662
 20
1.296381
 30
0.000000
 11
1.246892
 21
1.127870
 31
0.000000
  0
LINE
  8
daiko
 10
1.271976
 20
1.078882
 30
0.000000
 11
1.271976
 21
0.800773
 31
0.000000
  0
ARC
  8
daiko
 10
1.203828
 20
1.074903
 30
0.000000
 40
0.068264
 50
3.341489
 51
50.887950
  0
ARC
  8
daiko
 10
1.353077
 20
0.800773
 30
0.000000
 40
0.081101
 50
180.000000
 51
283.561910
  0
ARC
  8
daiko
 10
1.322735
 20
0.792188
 30
0.000000
 40
0.081101
 50
180.000000
 51
270.000000
  0
ARC
  8
daiko
 10
1.313319
 20
0.871382
 30
0.000000
 40
0.160571
 50
273.362001
 51
291.418076
  0
LINE
  8
daiko
 10
1.215844
 20
0.002762
 30
0.000000
 11
0.342005
 21
0.507273
 31
0.000000
  0
LINE
  8
daiko
 10
0.323800
 20
0.538805
 30
0.000000
 11
0.323800
 21
1.583738
 31
0.000000
  0
LINE
  8
daiko
 10
0.279903
 20
1.610595
 30
0.000000
 11
0.279903
 21
1.274348
 31
0.000000
  0
LINE
  8
daiko
 10
0.309168
 20
1.592689
 30
0.000000
 11
0.309168
 21
1.262421
 31
0.000000
  0
ARC
  8
daiko
 10
0.363980
 20
0.540982
 30
0.000000
 40
0.040239
 50
183.101069
 51
236.898931
  0
ARC
  8
daiko
 10
0.360006
 20
1.270373
 30
0.000000
 40
0.080201
 50
177.158545
 51
243.164144
  0
ARC
  8
daiko
 10
0.403749
 20
1.258445
 30
0.000000
 40
0.094665
 50
177.592959
 51
212.376470
  0
ARC
  8
daiko
 10
0.018723
 20
2.299406
 30
0.000000
 40
0.018723
 50
49.226727
 51
194.979895
  0
ARC
  8
daiko
 10
0.061664
 20
2.304114
 30
0.000000
 40
0.025797
 50
57.415088
 51
94.390401
  0
LINE
  8
daiko
 10
47.053686
 20
15.566697
 30
0.000000
 11
0.012073
 21
2.317171
 31
0.000000
  0
LINE
  8
daiko
 10
0.243437
 20
2.294664
 30
0.000000
 11
47.171739
 21
15.523518
 31
0.000000
  0
LINE
  8
daiko
 10
0.940556
 20
1.788424
 30
0.000000
 11
47.888516
 21
15.090843
 31
0.000000
  0
LINE
  8
daiko
 10
47.978545
 20
15.037227
 30
0.000000
 11
1.030938
 21
1.736242
 31
0.000000
  0
LINE
  8
daiko
 10
0.967628
 20
1.289633
 30
0.000000
 11
47.838075
 21
14.620917
 31
0.000000
  0
LINE
  8
daiko
 10
1.371954
 20
0.721900
 30
0.000000
 11
4.104622
 21
1.495082
 31
0.000000
  0
LINE
  8
daiko
 10
4.143953
 20
1.547103
 30
0.000000
 11
4.143953
 21
1.872123
 31
0.000000
  0
LINE
  8
daiko
 10
4.095176
 20
1.932303
 30
0.000000
 11
3.785935
 21
2.091239
 31
0.000000
  0
LINE
  8
daiko
 10
4.733570
 20
2.112585
 30
0.000000
 11
4.422700
 21
2.272353
 31
0.000000
  0
LINE
  8
daiko
 10
4.781264
 20
2.052962
 30
0.000000
 11
4.781264
 21
1.868554
 31
0.000000
  0
LINE
  8
daiko
 10
4.743777
 20
2.064254
 30
0.000000
 11
4.743777
 21
1.958791
 31
0.000000
  0
LINE
  8
daiko
 10
4.743777
 20
2.064254
 30
0.000000
 11
4.709453
 21
2.004804
 31
0.000000
  0
LINE
  8
daiko
 10
4.733570
 20
2.112585
 30
0.000000
 11
4.688888
 21
2.025644
 31
0.000000
  0
ARC
  8
daiko
 10
4.714773
 20
2.048661
 30
0.000000
 40
0.066630
 50
3.700322
 51
73.613734
  0
ARC
  8
daiko
 10
4.076945
 20
1.867669
 30
0.000000
 40
0.067156
 50
3.802736
 51
74.247750
  0
ARC
  8
daiko
 10
4.089886
 20
1.547103
 30
0.000000
 40
0.054067
 50
285.815789
 51
0.000000
  0
LINE
  8
daiko
 10
4.224437
 20
1.857674
 30
0.000000
 11
4.492308
 21
1.933342
 31
0.000000
  0
LINE
  8
daiko
 10
4.221728
 20
1.826446
 30
0.000000
 11
4.544216
 21
1.917542
 31
0.000000
  0
LINE
  8
daiko
 10
4.224437
 20
1.857674
 30
0.000000
 11
4.123804
 21
1.915775
 31
0.000000
  0
LINE
  8
daiko
 10
4.221728
 20
1.826446
 30
0.000000
 11
4.143953
 21
1.872123
 31
0.000000
  0
LINE
  8
daiko
 10
1.264590
 20
1.106016
 30
0.000000
 11
4.135511
 21
1.900532
 31
0.000000
  0
ARC
  8
daiko
 10
1.223169
 20
0.011095
 30
0.000000
 40
0.011095
 50
228.685764
 51
11.314236
  0
LINE
  8
daiko
 10
1.228717
 20
0.001487
 30
0.000000
 11
47.835223
 21
13.323348
 31
0.000000
  0
LINE
  8
daiko
 10
47.835223
 20
13.323348
 30
0.000000
 11
47.835223
 21
13.978006
 31
0.000000
  0
LINE
  8
daiko
 10
47.864048
 20
13.986183
 30
0.000000
 11
45.762251
 21
13.389935
 31
0.000000
  0
LINE
  8
daiko
 10
44.732749
 20
13.737674
 30
0.000000
 11
44.996016
 21
13.601609
 31
0.000000
  0
LINE
  8
daiko
 10
45.032326
 20
13.548626
 30
0.000000
 11
45.032326
 21
13.223606
 31
0.000000
  0
LINE
  8
daiko
 10
44.992995
 20
13.171586
 30
0.000000
 11
4.776211
 21
1.685702
 31
0.000000
  0
LINE
  8
daiko
 10
4.766804
 20
2.090282
 30
0.000000
 11
45.023884
 21
13.577036
 31
0.000000
  0
ARC
  8
daiko
 10
44.973779
 20
13.547436
 30
0.000000
 40
0.058560
 50
1.165034
 51
67.682758
  0
ARC
  8
daiko
 10
44.978259
 20
13.223606
 30
0.000000
 40
0.054067
 50
285.815809
 51
0.000000
  0
LINE
  8
daiko
 10
45.653682
 20
13.766493
 30
0.000000
 11
47.855605
 21
14.380491
 31
0.000000
  0
LINE
  8
daiko
 10
47.513609
 20
14.529575
 30
0.000000
 11
47.832780
 21
14.402976
 31
0.000000
  0
LINE
  8
daiko
 10
47.864048
 20
14.352082
 30
0.000000
 11
47.864048
 21
13.986183
 31
0.000000
  0
ARC
  8
daiko
 10
47.805421
 20
14.351116
 30
0.000000
 40
0.058635
 50
0.944191
 51
62.185703
  0
ARC
  8
daiko
 10
45.746587
 20
13.481393
 30
0.000000
 40
0.092790
 50
227.695878
 51
279.718877
  0
ARC
  8
daiko
 10
45.735603
 20
13.436534
 30
0.000000
 40
0.045573
 50
196.635853
 51
250.997223
  0
ARC
  8
daiko
 10
47.512183
 20
14.980364
 30
0.000000
 40
0.485188
 50
312.196974
 51
1.759228
  0
ARC
  8
daiko
 10
47.466969
 20
14.977129
 30
0.000000
 40
0.505235
 50
314.357235
 51
1.274567
  0
ARC
  8
daiko
 10
47.935865
 20
14.993209
 30
0.000000
 40
0.061312
 50
1.915328
 51
45.883552
  0
ARC
  8
daiko
 10
47.910677
 20
14.986283
 30
0.000000
 40
0.061437
 50
1.943382
 51
45.751758
  0
LINE
  8
daiko
 10
47.978545
 20
15.037227
 30
0.000000
 11
47.888516
 21
15.090843
 31
0.000000
  0
LINE
  8
daiko
 10
47.863526
 20
15.083908
 30
0.000000
 11
47.953546
 21
15.030292
 31
0.000000
  0
ARC
  8
daiko
 10
46.981695
 20
14.572389
 30
0.000000
 40
1.044565
 50
29.757743
 51
58.988575
  0
ARC
  8
daiko
 10
46.956215
 20
14.564971
 30
0.000000
 40
1.045232
 50
29.767435
 51
58.983892
  0
ARC
  8
daiko
 10
47.289451
 20
15.144449
 30
0.000000
 40
0.396925
 50
54.514418
 51
107.251009
  0
ARC
  8
daiko
 10
47.264387
 20
15.137557
 30
0.000000
 40
0.396925
 50
54.514418
 51
103.498103
  0
LINE
  8
daiko
 10
47.044807
 20
15.556596
 30
0.000000
 11
47.124429
 21
15.510626
 31
0.000000
  0
LINE
  8
daiko
 10
47.149566
 20
15.517476
 30
0.000000
 11
47.069871
 21
15.563488
 31
0.000000
  0
ARC
  8
daiko
 10
47.057782
 20
15.544936
 30
0.000000
 40
0.022143
 50
56.909734
 51
100.660256
  0
ARC
  8
daiko
 10
47.032569
 20
15.537759
 30
0.000000
 40
0.022463
 50
56.991011
 51
97.963614
  0
ARC
  8
daiko
 10
4.444056
 20
1.594840
 30
0.000000
 40
0.162030
 50
228.835943
 51
280.072572
  0
ARC
  8
daiko
 10
4.438975
 20
1.623439
 30
0.000000
 40
0.191077
 50
280.072572
 51
303.633092
  0
ARC
  8
daiko
 10
4.424622
 20
1.645016
 30
0.000000
 40
0.216992
 50
303.633092
 51
324.766710
  0
ARC
  8
daiko
 10
4.397935
 20
1.663864
 30
0.000000
 40
0.249664
 50
324.766710
 51
330.968462
  0
ARC
  8
daiko
 10
4.453956
 20
1.677289
 30
0.000000
 40
0.191077
 50
35.546981
 51
48.835943
  0
ARC
  8
daiko
 10
4.473075
 20
1.699156
 30
0.000000
 40
0.162030
 50
48.835943
 51
100.072572
  0
ARC
  8
daiko
 10
4.478155
 20
1.670557
 30
0.000000
 40
0.191077
 50
100.072572
 51
123.633092
  0
ARC
  8
daiko
 10
4.492509
 20
1.648980
 30
0.000000
 40
0.216992
 50
123.633092
 51
144.766710
  0
ARC
  8
daiko
 10
4.519195
 20
1.630132
 30
0.000000
 40
0.249664
 50
144.766710
 51
184.141805
  0
ARC
  8
daiko
 10
4.486609
 20
1.627772
 30
0.000000
 40
0.216992
 50
184.141805
 51
205.275423
  0
ARC
  8
daiko
 10
4.463175
 20
1.616707
 30
0.000000
 40
0.191077
 50
205.275423
 51
228.835943
  0
ARC
  8
daiko
 10
4.466795
 20
1.582462
 30
0.000000
 40
0.113166
 50
228.855680
 51
280.559274
  0
ARC
  8
daiko
 10
4.462765
 20
1.604081
 30
0.000000
 40
0.135157
 50
280.559274
 51
304.181378
  0
ARC
  8
daiko
 10
4.451691
 20
1.620388
 30
0.000000
 40
0.154869
 50
304.181378
 51
325.208512
  0
ARC
  8
daiko
 10
4.431207
 20
1.634620
 30
0.000000
 40
0.179811
 50
325.208512
 51
326.142634
  0
ARC
  8
daiko
 10
4.473913
 20
1.644852
 30
0.000000
 40
0.135157
 50
43.733824
 51
48.855680
  0
ARC
  8
daiko
 10
4.488382
 20
1.661413
 30
0.000000
 40
0.113166
 50
48.855680
 51
100.559274
  0
ARC
  8
daiko
 10
4.492412
 20
1.639794
 30
0.000000
 40
0.135157
 50
100.559274
 51
124.181378
  0
ARC
  8
daiko
 10
4.503486
 20
1.623487
 30
0.000000
 40
0.154869
 50
124.181378
 51
145.208512
  0
ARC
  8
daiko
 10
4.523970
 20
1.609255
 30
0.000000
 40
0.179811
 50
145.208512
 51
184.206442
  0
ARC
  8
daiko
 10
4.499095
 20
1.607426
 30
0.000000
 40
0.154869
 50
184.206442
 51
205.233576
  0
ARC
  8
daiko
 10
4.481264
 20
1.599023
 30
0.000000
 40
0.135157
 50
205.233576
 51
228.855680
  0
ARC
  8
daiko
 10
4.581509
 20
2.702755
 30
0.000000
 40
0.778429
 50
224.301998
 51
253.507122
  0
ARC
  8
daiko
 10
4.248531
 20
0.972205
 30
0.000000
 40
0.990501
 50
72.631204
 51
83.508294
  0
ARC
  8
daiko
 10
4.513294
 20
1.822784
 30
0.000000
 40
0.099675
 50
359.595369
 51
71.927153
  0
ARC
  8
daiko
 10
4.522752
 20
1.814527
 30
0.000000
 40
0.090531
 50
286.723702
 51
4.785737
  0
ARC
  8
daiko
 10
4.506575
 20
1.964687
 30
0.000000
 40
0.240596
 50
257.844257
 51
280.108558
  0
ARC
  8
daiko
 10
4.128333
 20
0.299984
 30
0.000000
 40
1.466554
 50
77.093128
 51
79.233612
  0
ARC
  8
daiko
 10
4.587028
 20
2.354518
 30
0.000000
 40
0.825106
 50
253.335888
 51
263.906821
  0
ARC
  8
daiko
 10
4.538798
 20
1.796012
 30
0.000000
 40
0.264878
 50
261.456395
 51
322.605345
  0
ARC
  8
daiko
 10
4.533853
 20
1.816207
 30
0.000000
 40
0.266648
 50
64.147879
 51
95.322707
  0
ARC
  8
daiko
 10
4.513717
 20
2.560832
 30
0.000000
 40
0.478786
 50
245.684972
 51
269.926592
  0
ARC
  8
daiko
 10
4.510639
 20
2.622161
 30
0.000000
 40
0.534144
 50
231.670974
 51
248.696037
  0
ARC
  8
daiko
 10
4.475370
 20
1.794380
 30
0.000000
 40
0.314758
 50
2.778365
 51
56.275297
  0
ARC
  8
daiko
 10
4.551900
 20
1.772930
 30
0.000000
 40
0.240674
 50
325.077521
 51
8.773087
  0
LINE
  8
daiko
 10
4.240200
 20
2.220445
 30
0.000000
 11
4.477544
 21
2.083415
 31
0.000000
  0
LINE
  8
daiko
 10
0.608235
 20
1.979914
 30
0.000000
 11
0.776158
 21
0.907100
 31
0.000000
  0
LINE
  8
daiko
 10
0.483811
 20
0.919965
 30
0.000000
 11
0.323137
 21
1.946465
 31
0.000000
  0
LINE
  8
daiko
 10
0.641952
 20
1.983023
 30
0.000000
 11
0.803695
 21
0.949690
 31
0.000000
  0
LINE
  8
daiko
 10
0.803695
 20
0.949690
 30
0.000000
 11
1.061858
 21
1.023538
 31
0.000000
  0
LINE
  8
daiko
 10
0.776158
 20
0.907100
 30
0.000000
 11
1.034321
 21
0.980948
 31
0.000000
  0
LINE
  8
daiko
 10
1.034321
 20
0.980948
 30
0.000000
 11
1.101169
 21
0.553877
 31
0.000000
  0
LINE
  8
daiko
 10
1.061858
 20
1.023538
 30
0.000000
 11
1.134886
 21
0.556987
 31
0.000000
  0
LINE
  8
daiko
 10
0.816071
 20
0.520428
 30
0.000000
 11
0.755404
 21
0.908013
 31
0.000000
  0
LINE
  8
daiko
 10
0.776158
 20
0.907100
 30
0.000000
 11
0.483811
 21
0.919965
 31
0.000000
  0
ARC
  8
daiko
 10
1.173105
 20
0.570787
 30
0.000000
 40
0.360568
 50
188.028524
 51
219.371207
  0
ARC
  8
daiko
 10
0.991299
 20
0.411085
 30
0.000000
 40
0.118994
 50
215.453320
 51
241.212907
  0
ARC
  8
daiko
 10
0.985073
 20
0.382541
 30
0.000000
 40
0.091356
 50
236.006934
 51
315.759257
  0
ARC
  8
daiko
 10
0.892295
 20
0.460001
 30
0.000000
 40
0.212067
 50
318.255121
 51
354.614585
  0
ARC
  8
daiko
 10
0.746807
 20
0.489935
 30
0.000000
 40
0.360085
 50
352.044380
 51
10.228430
  0
ARC
  8
daiko
 10
0.926012
 20
0.463111
 30
0.000000
 40
0.212067
 50
318.255121
 51
354.614585
  0
ARC
  8
daiko
 10
0.780523
 20
0.493045
 30
0.000000
 40
0.360085
 50
352.044380
 51
10.228430
  0
LINE
  8
daiko
 10
0.994437
 20
0.291666
 30
0.000000
 11
1.061304
 21
0.304789
 31
0.000000
  0
ARC
  8
daiko
 10
1.018790
 20
0.385650
 30
0.000000
 40
0.091356
 50
297.734319
 51
315.759257
  0
LINE
  8
daiko
 10
1.061858
 20
1.023538
 30
0.000000
 11
0.790265
 21
1.035491
 31
0.000000
  0
ARC
  8
daiko
 10
0.727230
 20
2.010661
 30
0.000000
 40
0.410069
 50
163.334616
 51
192.713594
  0
ARC
  8
daiko
 10
0.447771
 20
2.092161
 30
0.000000
 40
0.118994
 50
136.579320
 51
162.338907
  0
ARC
  8
daiko
 10
0.433121
 20
2.117437
 30
0.000000
 40
0.091356
 50
62.032969
 51
141.785293
  0
ARC
  8
daiko
 10
0.327305
 20
1.965566
 30
0.000000
 40
0.276013
 50
25.572758
 51
57.412073
  0
ARC
  8
daiko
 10
0.251945
 20
1.928284
 30
0.000000
 40
0.360085
 50
7.563797
 51
25.747846
  0
ARC
  8
daiko
 10
0.466771
 20
2.103645
 30
0.000000
 40
0.108785
 50
57.903548
 51
82.195846
  0
ARC
  8
daiko
 10
0.356715
 20
1.972174
 30
0.000000
 40
0.279618
 50
25.385966
 51
53.107546
  0
ARC
  8
daiko
 10
0.285000
 20
1.935625
 30
0.000000
 40
0.360085
 50
7.563797
 51
25.747846
  0
LINE
  8
daiko
 10
0.414269
 20
2.206827
 30
0.000000
 11
0.481543
 21
2.211422
 31
0.000000
  0
ARC
  8
daiko
 10
0.978263
 20
0.601900
 30
0.000000
 40
0.141030
 50
135.725784
 51
160.080518
  0
ARC
  8
daiko
 10
1.052562
 20
0.574976
 30
0.000000
 40
0.220058
 50
160.080518
 51
176.692901
  0
ARC
  8
daiko
 10
1.163902
 20
0.568542
 30
0.000000
 40
0.331583
 50
176.692901
 51
203.727469
  0
ARC
  8
daiko
 10
1.061804
 20
0.523666
 30
0.000000
 40
0.220058
 50
203.727469
 51
220.339851
  0
ARC
  8
daiko
 10
1.001568
 20
0.472510
 30
0.000000
 40
0.141030
 50
220.339851
 51
244.694586
  0
ARC
  8
daiko
 10
0.970120
 20
0.405999
 30
0.000000
 40
0.067459
 50
244.694586
 51
315.725784
  0
ARC
  8
daiko
 10
0.917443
 20
0.457358
 30
0.000000
 40
0.141030
 50
315.725784
 51
340.080518
  0
ARC
  8
daiko
 10
0.843143
 20
0.484283
 30
0.000000
 40
0.220058
 50
340.080518
 51
356.692901
  0
ARC
  8
daiko
 10
0.731804
 20
0.490716
 30
0.000000
 40
0.331583
 50
356.692901
 51
23.727469
  0
ARC
  8
daiko
 10
0.833902
 20
0.535592
 30
0.000000
 40
0.220058
 50
23.727469
 51
40.339851
  0
ARC
  8
daiko
 10
0.894138
 20
0.586749
 30
0.000000
 40
0.141030
 50
40.339851
 51
64.694586
  0
ARC
  8
daiko
 10
0.925585
 20
0.653260
 30
0.000000
 40
0.067459
 50
64.694586
 51
135.725784
  0
ARC
  8
daiko
 10
0.504329
 20
1.869436
 30
0.000000
 40
0.141030
 50
135.725784
 51
160.080518
  0
ARC
  8
daiko
 10
0.578628
 20
1.842512
 30
0.000000
 40
0.220058
 50
160.080518
 51
176.692901
  0
ARC
  8
daiko
 10
0.689968
 20
1.836078
 30
0.000000
 40
0.331583
 50
176.692901
 51
203.727469
  0
ARC
  8
daiko
 10
0.587870
 20
1.791202
 30
0.000000
 40
0.220058
 50
203.727469
 51
220.339851
  0
ARC
  8
daiko
 10
0.527633
 20
1.740046
 30
0.000000
 40
0.141030
 50
220.339851
 51
244.694586
  0
ARC
  8
daiko
 10
0.496186
 20
1.673534
 30
0.000000
 40
0.067459
 50
244.694586
 51
315.725784
  0
ARC
  8
daiko
 10
0.443509
 20
1.724894
 30
0.000000
 40
0.141030
 50
315.725784
 51
340.080518
  0
ARC
  8
daiko
 10
0.369209
 20
1.751818
 30
0.000000
 40
0.220058
 50
340.080518
 51
356.692901
  0
ARC
  8
daiko
 10
0.257870
 20
1.758252
 30
0.000000
 40
0.331583
 50
356.692901
 51
23.727469
  0
ARC
  8
daiko
 10
0.359968
 20
1.803128
 30
0.000000
 40
0.220058
 50
23.727469
 51
40.339851
  0
ARC
  8
daiko
 10
0.420204
 20
1.854284
 30
0.000000
 40
0.141030
 50
40.339851
 51
64.694586
  0
ARC
  8
daiko
 10
0.451651
 20
1.920796
 30
0.000000
 40
0.067459
 50
64.694586
 51
135.725784
  0
ARC
  8
daiko
 10
0.924816
 20
1.656648
 30
0.000000
 40
0.087013
 50
156.140645
 51
180.515944
  0
ARC
  8
daiko
 10
0.972631
 20
1.657079
 30
0.000000
 40
0.134830
 50
180.515944
 51
197.243619
  0
ARC
  8
daiko
 10
1.036942
 20
1.677040
 30
0.000000
 40
0.202168
 50
197.243619
 51
224.532526
  0
ARC
  8
daiko
 10
0.988940
 20
1.629815
 30
0.000000
 40
0.134830
 50
224.532526
 51
241.260202
  0
ARC
  8
daiko
 10
0.965949
 20
1.587889
 30
0.000000
 40
0.087013
 50
241.260202
 51
265.635501
  0
ARC
  8
daiko
 10
0.962545
 20
1.543300
 30
0.000000
 40
0.042295
 50
265.635501
 51
336.140645
  0
ARC
  8
daiko
 10
0.921649
 20
1.561389
 30
0.000000
 40
0.087013
 50
336.140645
 51
0.515944
  0
ARC
  8
daiko
 10
0.873834
 20
1.560958
 30
0.000000
 40
0.134830
 50
0.515944
 51
17.243619
  0
ARC
  8
daiko
 10
0.809523
 20
1.540997
 30
0.000000
 40
0.202168
 50
17.243619
 51
44.532526
  0
ARC
  8
daiko
 10
0.857525
 20
1.588222
 30
0.000000
 40
0.134830
 50
44.532526
 51
61.260202
  0
ARC
  8
daiko
 10
0.880516
 20
1.630148
 30
0.000000
 40
0.087013
 50
61.260202
 51
85.635501
  0
ARC
  8
daiko
 10
0.883920
 20
1.674737
 30
0.000000
 40
0.042295
 50
85.635501
 51
156.140645
  0
ARC
  8
daiko
 10
0.135934
 20
2.110130
 30
0.000000
 40
0.087013
 50
156.140645
 51
180.515944
  0
ARC
  8
daiko
 10
0.183749
 20
2.110561
 30
0.000000
 40
0.134830
 50
180.515944
 51
197.243619
  0
ARC
  8
daiko
 10
0.248060
 20
2.130522
 30
0.000000
 40
0.202168
 50
197.243619
 51
224.532526
  0
ARC
  8
daiko
 10
0.200058
 20
2.083297
 30
0.000000
 40
0.134830
 50
224.532526
 51
241.260202
  0
ARC
  8
daiko
 10
0.177066
 20
2.041371
 30
0.000000
 40
0.087013
 50
241.260202
 51
265.635501
  0
ARC
  8
daiko
 10
0.173663
 20
1.996782
 30
0.000000
 40
0.042295
 50
265.635501
 51
336.140645
  0
ARC
  8
daiko
 10
0.132766
 20
2.014870
 30
0.000000
 40
0.087013
 50
336.140645
 51
0.515944
  0
ARC
  8
daiko
 10
0.084951
 20
2.014440
 30
0.000000
 40
0.134830
 50
0.515944
 51
17.243619
  0
ARC
  8
daiko
 10
0.020640
 20
1.994478
 30
0.000000
 40
0.202168
 50
17.243619
 51
44.532526
  0
ARC
  8
daiko
 10
0.068642
 20
2.041703
 30
0.000000
 40
0.134830
 50
44.532526
 51
61.260202
  0
ARC
  8
daiko
 10
0.091634
 20
2.083630
 30
0.000000
 40
0.087013
 50
61.260202
 51
85.635501
  0
ARC
  8
daiko
 10
0.095037
 20
2.128218
 30
0.000000
 40
0.042295
 50
85.635501
 51
156.140645
  0
ARC
  8
daiko
 10
1.535056
 20
0.716274
 30
0.000000
 40
0.038550
 50
33.509011
 51
98.810702
  0
ARC
  8
daiko
 10
1.541153
 20
0.659758
 30
0.000000
 40
0.095370
 50
97.229556
 51
133.194579
  0
ARC
  8
daiko
 10
1.601134
 20
0.585080
 30
0.000000
 40
0.190990
 50
130.978175
 51
167.585393
  0
ARC
  8
daiko
 10
1.528406
 20
0.601616
 30
0.000000
 40
0.116408
 50
167.838507
 51
194.317152
  0
ARC
  8
daiko
 10
1.461487
 20
0.585031
 30
0.000000
 40
0.047468
 50
194.894220
 51
236.828996
  0
ARC
  8
daiko
 10
1.451190
 20
0.675788
 30
0.000000
 40
0.131429
 50
263.150027
 51
28.032903
  0
ARC
  8
daiko
 10
47.719113
 20
13.860329
 30
0.000000
 40
0.038550
 50
33.509011
 51
98.810702
  0
ARC
  8
daiko
 10
47.725210
 20
13.803813
 30
0.000000
 40
0.095370
 50
97.229556
 51
133.194579
  0
ARC
  8
daiko
 10
47.785192
 20
13.729135
 30
0.000000
 40
0.190990
 50
130.978175
 51
167.585393
  0
ARC
  8
daiko
 10
47.712463
 20
13.745671
 30
0.000000
 40
0.116408
 50
167.838507
 51
194.317152
  0
ARC
  8
daiko
 10
47.645544
 20
13.729086
 30
0.000000
 40
0.047468
 50
194.894220
 51
236.828996
  0
ARC
  8
daiko
 10
47.635247
 20
13.819843
 30
0.000000
 40
0.131429
 50
263.150027
 51
28.032903
  0
TEXT
  8
daiko
 10
0.000000
 20
-10.000000
 30
0.000000
 40
4.000000
  1
LZY-91360YTF
  7
BIGFONT
  0
TEXT
  8
daiko
 10
0.000000
 20
-14.000000
 30
0.000000
 40
3.000000
  1
LED19W         3000K
  7
BIGFONT
  0
TEXT
  8
daiko
 10
0.000000
 20
-18.000000
 30
0.000000
 40
3.000000
  1
演色性 Ra83    ｼﾙﾊﾞｰ
  7
BIGFONT
  0
TEXT
  8
daiko
 10
0.000000
 20
-22.000000
 30
0.000000
 40
3.000000
  1
巾最大81 長1496 高最大69mm
  7
BIGFONT
  0
ENDSEC
  0
EOF
