  0
SECTION
  2
HEADER
  9
$EXTMIN
 10
0.000000
 20
-23.000000
 30
0.000000
  9
$EXTMAX
 10
48.477025
 20
19.956470
 30
0.000000
  0
ENDSEC
  0
SECTION
  2
TABLES
  0
TABLE
  2
LTYPE
 70
     1
  0
LTYPE
  2
CONTINUOUS
 70
     0
  3
Solid line
 72
    65
 73
     0
 40
0.000000
  0
ENDTAB
  0
TABLE
  2
STYLE
 70
     2
  0
STYLE
  2
BIGFONT
 70
     0
 40
1.000000
 41
1.000000
 50
0.000000
 71
     0
 42
0.000000
  3
txt
  4
bigfont
  0
STYLE
  2
STANDARD
 70
     0
 40
0.000000
 41
1.000000
 50
0.000000
 71
     0
 42
3.500000
  3
txt.shx
  4
bigfont.shx
  0
ENDTAB
  0
TABLE
  2
LAYER
 70
     1
  0
LAYER
  2
daiko
 70
     0
 62
     7
  6
CONTINUOUS
  0
ENDTAB
  0
ENDSEC
  0
SECTION
  2
ENTITIES
  0
ARC
  8
daiko
 10
47.283500
 20
14.197751
 30
0.000000
 40
0.433176
 50
263.150027
 51
28.032903
  0
ARC
  8
daiko
 10
47.317436
 20
13.898624
 30
0.000000
 40
0.156451
 50
194.894220
 51
236.828996
  0
ARC
  8
daiko
 10
47.537996
 20
13.953288
 30
0.000000
 40
0.383671
 50
167.838507
 51
194.317152
  0
ARC
  8
daiko
 10
47.777702
 20
13.898785
 30
0.000000
 40
0.629486
 50
130.978175
 51
167.585393
  0
ARC
  8
daiko
 10
47.580009
 20
14.144919
 30
0.000000
 40
0.314329
 50
97.229556
 51
133.194579
  0
ARC
  8
daiko
 10
47.559914
 20
14.331190
 30
0.000000
 40
0.127058
 50
33.509011
 51
98.810702
  0
ARC
  8
daiko
 10
4.782980
 20
2.227332
 30
0.000000
 40
0.433176
 50
263.150027
 51
28.032903
  0
ARC
  8
daiko
 10
4.816916
 20
1.928204
 30
0.000000
 40
0.156451
 50
194.894220
 51
236.828996
  0
ARC
  8
daiko
 10
5.037476
 20
1.982868
 30
0.000000
 40
0.383671
 50
167.838507
 51
194.317152
  0
ARC
  8
daiko
 10
5.277182
 20
1.928366
 30
0.000000
 40
0.629486
 50
130.978175
 51
167.585393
  0
ARC
  8
daiko
 10
5.079489
 20
2.174499
 30
0.000000
 40
0.314329
 50
97.229556
 51
133.194579
  0
ARC
  8
daiko
 10
5.059394
 20
2.360770
 30
0.000000
 40
0.127058
 50
33.509011
 51
98.810702
  0
ARC
  8
daiko
 10
0.313232
 20
7.014399
 30
0.000000
 40
0.139399
 50
85.635501
 51
156.140645
  0
ARC
  8
daiko
 10
0.302016
 20
6.867439
 30
0.000000
 40
0.286787
 50
61.260202
 51
85.635501
  0
ARC
  8
daiko
 10
0.226237
 20
6.729254
 30
0.000000
 40
0.444386
 50
44.532526
 51
61.260202
  0
ARC
  8
daiko
 10
0.068028
 20
6.573605
 30
0.000000
 40
0.666325
 50
17.243619
 51
44.532526
  0
ARC
  8
daiko
 10
0.279991
 20
6.639396
 30
0.000000
 40
0.444386
 50
0.515944
 51
17.243619
  0
ARC
  8
daiko
 10
0.437584
 20
6.640815
 30
0.000000
 40
0.286787
 50
336.140645
 51
0.515944
  0
ARC
  8
daiko
 10
0.572376
 20
6.581198
 30
0.000000
 40
0.139399
 50
265.635501
 51
336.140645
  0
ARC
  8
daiko
 10
0.583592
 20
6.728157
 30
0.000000
 40
0.286787
 50
241.260202
 51
265.635501
  0
ARC
  8
daiko
 10
0.659371
 20
6.866343
 30
0.000000
 40
0.444386
 50
224.532526
 51
241.260202
  0
ARC
  8
daiko
 10
0.817580
 20
7.021991
 30
0.000000
 40
0.666325
 50
197.243619
 51
224.532526
  0
ARC
  8
daiko
 10
0.605617
 20
6.956201
 30
0.000000
 40
0.444386
 50
180.515944
 51
197.243619
  0
ARC
  8
daiko
 10
0.448024
 20
6.954782
 30
0.000000
 40
0.286787
 50
156.140645
 51
180.515944
  0
ARC
  8
daiko
 10
2.913312
 20
5.519768
 30
0.000000
 40
0.139399
 50
85.635501
 51
156.140645
  0
ARC
  8
daiko
 10
2.902096
 20
5.372808
 30
0.000000
 40
0.286787
 50
61.260202
 51
85.635501
  0
ARC
  8
daiko
 10
2.826317
 20
5.234623
 30
0.000000
 40
0.444386
 50
44.532526
 51
61.260202
  0
ARC
  8
daiko
 10
2.668108
 20
5.078974
 30
0.000000
 40
0.666325
 50
17.243619
 51
44.532526
  0
ARC
  8
daiko
 10
2.880071
 20
5.144764
 30
0.000000
 40
0.444386
 50
0.515944
 51
17.243619
  0
ARC
  8
daiko
 10
3.037664
 20
5.146184
 30
0.000000
 40
0.286787
 50
336.140645
 51
0.515944
  0
ARC
  8
daiko
 10
3.172455
 20
5.086567
 30
0.000000
 40
0.139399
 50
265.635501
 51
336.140645
  0
ARC
  8
daiko
 10
3.183672
 20
5.233526
 30
0.000000
 40
0.286787
 50
241.260202
 51
265.635501
  0
ARC
  8
daiko
 10
3.259451
 20
5.371712
 30
0.000000
 40
0.444386
 50
224.532526
 51
241.260202
  0
ARC
  8
daiko
 10
3.417660
 20
5.527360
 30
0.000000
 40
0.666325
 50
197.243619
 51
224.532526
  0
ARC
  8
daiko
 10
3.205697
 20
5.461570
 30
0.000000
 40
0.444386
 50
180.515944
 51
197.243619
  0
ARC
  8
daiko
 10
3.048104
 20
5.460151
 30
0.000000
 40
0.286787
 50
156.140645
 51
180.515944
  0
ARC
  8
daiko
 10
1.488599
 20
6.330754
 30
0.000000
 40
0.222340
 50
64.694586
 51
135.725784
  0
ARC
  8
daiko
 10
1.384951
 20
6.111539
 30
0.000000
 40
0.464822
 50
40.339851
 51
64.694586
  0
ARC
  8
daiko
 10
1.186419
 20
5.942934
 30
0.000000
 40
0.725289
 50
23.727469
 51
40.339851
  0
ARC
  8
daiko
 10
0.849913
 20
5.795026
 30
0.000000
 40
1.092866
 50
356.692901
 51
23.727469
  0
ARC
  8
daiko
 10
1.216878
 20
5.773821
 30
0.000000
 40
0.725289
 50
340.080518
 51
356.692901
  0
ARC
  8
daiko
 10
1.461761
 20
5.685080
 30
0.000000
 40
0.464822
 50
315.725784
 51
340.080518
  0
ARC
  8
daiko
 10
1.635381
 20
5.515805
 30
0.000000
 40
0.222340
 50
244.694586
 51
315.725784
  0
ARC
  8
daiko
 10
1.739028
 20
5.735019
 30
0.000000
 40
0.464822
 50
220.339851
 51
244.694586
  0
ARC
  8
daiko
 10
1.937561
 20
5.903625
 30
0.000000
 40
0.725289
 50
203.727469
 51
220.339851
  0
ARC
  8
daiko
 10
2.274066
 20
6.051533
 30
0.000000
 40
1.092866
 50
176.692901
 51
203.727469
  0
ARC
  8
daiko
 10
1.907101
 20
6.072737
 30
0.000000
 40
0.725289
 50
160.080518
 51
176.692901
  0
ARC
  8
daiko
 10
1.662218
 20
6.161478
 30
0.000000
 40
0.464822
 50
135.725784
 51
160.080518
  0
ARC
  8
daiko
 10
3.050639
 20
2.153080
 30
0.000000
 40
0.222340
 50
64.694586
 51
135.725784
  0
ARC
  8
daiko
 10
2.946991
 20
1.933866
 30
0.000000
 40
0.464822
 50
40.339851
 51
64.694586
  0
ARC
  8
daiko
 10
2.748459
 20
1.765260
 30
0.000000
 40
0.725289
 50
23.727469
 51
40.339851
  0
ARC
  8
daiko
 10
2.411953
 20
1.617352
 30
0.000000
 40
1.092866
 50
356.692901
 51
23.727469
  0
ARC
  8
daiko
 10
2.778918
 20
1.596148
 30
0.000000
 40
0.725289
 50
340.080518
 51
356.692901
  0
ARC
  8
daiko
 10
3.023802
 20
1.507407
 30
0.000000
 40
0.464822
 50
315.725784
 51
340.080518
  0
ARC
  8
daiko
 10
3.197421
 20
1.338131
 30
0.000000
 40
0.222340
 50
244.694586
 51
315.725784
  0
ARC
  8
daiko
 10
3.301068
 20
1.557346
 30
0.000000
 40
0.464822
 50
220.339851
 51
244.694586
  0
ARC
  8
daiko
 10
3.499601
 20
1.725951
 30
0.000000
 40
0.725289
 50
203.727469
 51
220.339851
  0
ARC
  8
daiko
 10
3.836106
 20
1.873859
 30
0.000000
 40
1.092866
 50
176.692901
 51
203.727469
  0
ARC
  8
daiko
 10
3.469142
 20
1.895064
 30
0.000000
 40
0.725289
 50
160.080518
 51
176.692901
  0
ARC
  8
daiko
 10
3.224258
 20
1.983805
 30
0.000000
 40
0.464822
 50
135.725784
 51
160.080518
  0
LINE
  8
daiko
 10
1.365389
 20
7.273486
 30
0.000000
 11
1.587119
 21
7.288632
 31
0.000000
  0
ARC
  8
daiko
 10
0.939331
 20
6.379631
 30
0.000000
 40
1.186805
 50
7.563797
 51
25.747846
  0
ARC
  8
daiko
 10
1.175697
 20
6.500092
 30
0.000000
 40
0.921595
 50
25.385966
 51
53.107546
  0
ARC
  8
daiko
 10
1.538433
 20
6.933407
 30
0.000000
 40
0.358545
 50
57.903548
 51
82.195846
  0
ARC
  8
daiko
 10
0.830387
 20
6.355433
 30
0.000000
 40
1.186805
 50
7.563797
 51
25.747846
  0
ARC
  8
daiko
 10
1.078765
 20
6.478312
 30
0.000000
 40
0.909712
 50
25.572758
 51
57.412073
  0
ARC
  8
daiko
 10
1.427524
 20
6.978865
 30
0.000000
 40
0.301102
 50
62.032969
 51
141.785293
  0
ARC
  8
daiko
 10
1.475809
 20
6.895556
 30
0.000000
 40
0.392193
 50
136.579320
 51
162.338907
  0
ARC
  8
daiko
 10
2.396878
 20
6.626943
 30
0.000000
 40
1.351547
 50
163.334616
 51
192.713594
  0
LINE
  8
daiko
 10
3.499780
 20
3.373482
 30
0.000000
 11
2.604637
 21
3.412876
 31
0.000000
  0
ARC
  8
daiko
 10
3.357830
 20
1.271066
 30
0.000000
 40
0.301102
 50
297.734319
 51
315.759257
  0
LINE
  8
daiko
 10
3.277566
 20
0.961301
 30
0.000000
 11
3.497955
 21
1.004556
 31
0.000000
  0
ARC
  8
daiko
 10
2.572528
 20
1.625028
 30
0.000000
 40
1.186805
 50
352.044380
 51
10.228430
  0
ARC
  8
daiko
 10
3.052045
 20
1.526367
 30
0.000000
 40
0.698952
 50
318.255121
 51
354.614585
  0
ARC
  8
daiko
 10
2.461401
 20
1.614779
 30
0.000000
 40
1.186805
 50
352.044380
 51
10.228430
  0
ARC
  8
daiko
 10
2.940918
 20
1.516118
 30
0.000000
 40
0.698952
 50
318.255121
 51
354.614585
  0
ARC
  8
daiko
 10
3.246704
 20
1.260817
 30
0.000000
 40
0.301102
 50
236.006934
 51
315.759257
  0
ARC
  8
daiko
 10
3.267223
 20
1.354896
 30
0.000000
 40
0.392193
 50
215.453320
 51
241.212907
  0
ARC
  8
daiko
 10
3.866439
 20
1.881258
 30
0.000000
 40
1.188396
 50
188.028524
 51
219.371207
  0
LINE
  8
daiko
 10
2.558142
 20
2.989711
 30
0.000000
 11
1.594595
 21
3.032116
 31
0.000000
  0
LINE
  8
daiko
 10
2.689691
 20
1.715279
 30
0.000000
 11
2.489738
 21
2.992722
 31
0.000000
  0
LINE
  8
daiko
 10
3.499780
 20
3.373482
 30
0.000000
 11
3.740472
 21
1.835773
 31
0.000000
  0
LINE
  8
daiko
 10
3.409021
 20
3.233108
 30
0.000000
 11
3.629345
 21
1.825524
 31
0.000000
  0
LINE
  8
daiko
 10
2.558142
 20
2.989711
 30
0.000000
 11
3.409021
 21
3.233108
 31
0.000000
  0
LINE
  8
daiko
 10
2.648901
 20
3.130085
 30
0.000000
 11
3.499780
 21
3.373482
 31
0.000000
  0
LINE
  8
daiko
 10
2.115809
 20
6.535850
 30
0.000000
 11
2.648901
 21
3.130085
 31
0.000000
  0
LINE
  8
daiko
 10
1.594595
 20
3.032116
 30
0.000000
 11
1.065028
 21
6.415357
 31
0.000000
  0
LINE
  8
daiko
 10
2.004682
 20
6.525601
 30
0.000000
 11
2.558142
 21
2.989711
 31
0.000000
  0
LINE
  8
daiko
 10
14.015782
 20
7.294988
 30
0.000000
 11
14.757546
 21
6.866730
 31
0.000000
  0
ARC
  8
daiko
 10
15.002617
 20
5.843402
 30
0.000000
 40
0.793239
 50
325.077521
 51
8.773087
  0
ARC
  8
daiko
 10
14.750382
 20
5.914102
 30
0.000000
 40
1.037413
 50
2.778365
 51
56.275297
  0
ARC
  8
daiko
 10
14.866622
 20
8.642385
 30
0.000000
 40
1.760488
 50
233.003243
 51
248.696037
  0
ARC
  8
daiko
 10
14.876769
 20
8.440250
 30
0.000000
 40
1.578031
 50
245.684972
 51
269.926592
  0
ARC
  8
daiko
 10
14.943136
 20
5.986041
 30
0.000000
 40
0.878845
 50
64.147879
 51
95.322707
  0
ARC
  8
daiko
 10
14.959432
 20
5.919481
 30
0.000000
 40
0.873013
 50
261.456395
 51
322.605345
  0
ARC
  8
daiko
 10
15.118395
 20
7.760260
 30
0.000000
 40
2.719468
 50
253.335888
 51
263.906821
  0
ARC
  8
daiko
 10
13.606581
 20
0.988719
 30
0.000000
 40
4.833619
 50
77.093128
 51
79.233612
  0
ARC
  8
daiko
 10
14.853229
 20
6.475414
 30
0.000000
 40
0.792981
 50
257.844257
 51
280.108558
  0
ARC
  8
daiko
 10
14.906547
 20
5.980504
 30
0.000000
 40
0.298381
 50
286.723702
 51
4.785737
  0
ARC
  8
daiko
 10
14.875376
 20
6.007717
 30
0.000000
 40
0.328520
 50
359.595369
 51
71.927153
  0
ARC
  8
daiko
 10
14.002741
 20
3.204291
 30
0.000000
 40
3.264593
 50
72.631204
 51
83.508294
  0
ARC
  8
daiko
 10
15.100206
 20
8.908016
 30
0.000000
 40
2.565626
 50
225.100270
 51
253.507122
  0
ARC
  8
daiko
 10
14.769808
 20
5.270222
 30
0.000000
 40
0.445465
 50
205.233576
 51
228.855680
  0
ARC
  8
daiko
 10
14.828575
 20
5.297918
 30
0.000000
 40
0.510432
 50
184.206442
 51
205.233576
  0
ARC
  8
daiko
 10
14.910562
 20
5.303948
 30
0.000000
 40
0.592640
 50
145.208512
 51
184.206442
  0
ARC
  8
daiko
 10
14.843050
 20
5.350855
 30
0.000000
 40
0.510432
 50
124.181378
 51
145.208512
  0
ARC
  8
daiko
 10
14.806550
 20
5.404600
 30
0.000000
 40
0.445465
 50
100.559274
 51
124.181378
  0
ARC
  8
daiko
 10
14.793268
 20
5.475855
 30
0.000000
 40
0.372983
 50
48.855680
 51
100.559274
  0
ARC
  8
daiko
 10
14.745578
 20
5.421272
 30
0.000000
 40
0.445465
 50
43.733824
 51
48.855680
  0
ARC
  8
daiko
 10
14.604824
 20
5.387546
 30
0.000000
 40
0.592640
 50
325.208512
 51
326.142634
  0
ARC
  8
daiko
 10
14.672336
 20
5.340639
 30
0.000000
 40
0.510432
 50
304.181378
 51
325.208512
  0
ARC
  8
daiko
 10
14.708835
 20
5.286894
 30
0.000000
 40
0.445465
 50
280.559274
 51
304.181378
  0
ARC
  8
daiko
 10
14.722118
 20
5.215639
 30
0.000000
 40
0.372983
 50
228.855680
 51
280.559274
  0
ARC
  8
daiko
 10
14.710186
 20
5.328507
 30
0.000000
 40
0.629771
 50
205.275423
 51
228.835943
  0
ARC
  8
daiko
 10
14.787422
 20
5.364976
 30
0.000000
 40
0.715184
 50
184.141805
 51
205.275423
  0
ARC
  8
daiko
 10
14.894825
 20
5.372754
 30
0.000000
 40
0.822868
 50
144.766710
 51
184.141805
  0
ARC
  8
daiko
 10
14.806868
 20
5.434877
 30
0.000000
 40
0.715184
 50
123.633092
 51
144.766710
  0
ARC
  8
daiko
 10
14.759559
 20
5.505993
 30
0.000000
 40
0.629771
 50
100.072572
 51
123.633092
  0
ARC
  8
daiko
 10
14.742816
 20
5.600252
 30
0.000000
 40
0.534036
 50
48.835943
 51
100.072572
  0
ARC
  8
daiko
 10
14.679801
 20
5.528180
 30
0.000000
 40
0.629771
 50
35.546981
 51
48.835943
  0
ARC
  8
daiko
 10
14.495162
 20
5.483934
 30
0.000000
 40
0.822868
 50
324.766710
 51
330.968462
  0
ARC
  8
daiko
 10
14.583120
 20
5.421810
 30
0.000000
 40
0.715184
 50
303.633092
 51
324.766710
  0
ARC
  8
daiko
 10
14.630428
 20
5.350695
 30
0.000000
 40
0.629771
 50
280.072572
 51
303.633092
  0
ARC
  8
daiko
 10
14.647171
 20
5.256435
 30
0.000000
 40
0.534036
 50
228.835943
 51
280.072572
  0
ARC
  8
daiko
 10
45.297133
 20
19.859833
 30
0.000000
 40
0.074036
 50
56.991011
 51
97.963614
  0
ARC
  8
daiko
 10
45.380230
 20
19.883490
 30
0.000000
 40
0.072980
 50
56.909734
 51
100.660256
  0
LINE
  8
daiko
 10
45.682742
 20
19.792982
 30
0.000000
 11
45.420074
 21
19.944633
 31
0.000000
  0
LINE
  8
daiko
 10
45.337466
 20
19.921919
 30
0.000000
 11
45.599894
 21
19.770406
 31
0.000000
  0
ARC
  8
daiko
 10
46.061181
 20
18.540807
 30
0.000000
 40
1.308226
 50
54.514418
 51
103.498103
  0
ARC
  8
daiko
 10
46.143789
 20
18.563522
 30
0.000000
 40
1.308226
 50
54.514418
 51
107.251009
  0
ARC
  8
daiko
 10
45.045477
 20
16.653619
 30
0.000000
 40
3.444981
 50
29.767435
 51
58.983892
  0
ARC
  8
daiko
 10
45.129457
 20
16.678071
 30
0.000000
 40
3.442785
 50
29.757743
 51
58.988575
  0
LINE
  8
daiko
 10
48.035885
 20
18.363986
 30
0.000000
 11
48.332580
 21
18.187272
 31
0.000000
  0
LINE
  8
daiko
 10
48.414976
 20
18.210129
 30
0.000000
 11
48.118249
 21
18.386841
 31
0.000000
  0
ARC
  8
daiko
 10
48.191289
 20
18.042224
 30
0.000000
 40
0.202489
 50
1.943382
 51
45.751758
  0
ARC
  8
daiko
 10
48.274306
 20
18.065052
 30
0.000000
 40
0.202077
 50
1.915328
 51
45.883552
  0
ARC
  8
daiko
 10
46.728870
 20
18.012051
 30
0.000000
 40
1.665204
 50
314.357235
 51
1.274567
  0
ARC
  8
daiko
 10
46.877892
 20
18.022713
 30
0.000000
 40
1.599133
 50
312.196974
 51
1.759228
  0
ARC
  8
daiko
 10
41.022460
 20
12.934402
 30
0.000000
 40
0.150204
 50
196.635853
 51
250.997223
  0
ARC
  8
daiko
 10
41.058661
 20
13.082253
 30
0.000000
 40
0.305827
 50
186.805033
 51
279.718877
  0
ARC
  8
daiko
 10
47.844375
 20
15.948774
 30
0.000000
 40
0.193256
 50
0.944191
 51
62.185703
  0
LINE
  8
daiko
 10
48.037605
 20
15.951958
 30
0.000000
 11
48.037605
 21
14.745990
 31
0.000000
  0
LINE
  8
daiko
 10
46.882592
 20
16.536960
 30
0.000000
 11
47.934549
 21
16.119702
 31
0.000000
  0
LINE
  8
daiko
 10
40.830885
 20
14.043786
 30
0.000000
 11
48.009779
 21
16.045593
 31
0.000000
  0
LINE
  8
daiko
 10
40.721349
 20
14.117293
 30
0.000000
 11
39.856819
 21
14.561609
 31
0.000000
  0
ARC
  8
daiko
 10
40.659395
 20
13.906607
 30
0.000000
 40
0.219605
 50
3.700322
 51
73.613734
  0
LINE
  8
daiko
 10
40.754988
 20
13.957999
 30
0.000000
 11
40.721349
 21
14.117293
 31
0.000000
  0
LINE
  8
daiko
 10
39.034365
 20
13.174207
 30
0.000000
 11
38.778028
 21
13.324754
 31
0.000000
  0
ARC
  8
daiko
 10
38.599828
 20
12.253519
 30
0.000000
 40
0.178200
 50
285.815809
 51
0.000000
  0
ARC
  8
daiko
 10
38.585061
 20
13.320830
 30
0.000000
 40
0.193007
 50
1.165034
 51
67.682758
  0
LINE
  8
daiko
 10
15.710920
 20
6.889365
 30
0.000000
 11
38.750202
 21
13.418389
 31
0.000000
  0
LINE
  8
daiko
 10
38.648396
 20
12.082065
 30
0.000000
 11
15.741924
 21
5.555908
 31
0.000000
  0
LINE
  8
daiko
 10
38.778028
 20
13.324754
 30
0.000000
 11
38.778028
 21
12.253519
 31
0.000000
  0
LINE
  8
daiko
 10
37.749606
 20
13.969051
 30
0.000000
 11
38.658352
 21
13.499380
 31
0.000000
  0
LINE
  8
daiko
 10
39.043295
 20
13.277133
 30
0.000000
 11
38.709206
 21
13.470020
 31
0.000000
  0
LINE
  8
daiko
 10
40.721349
 20
14.117293
 30
0.000000
 11
40.468758
 21
13.679794
 31
0.000000
  0
LINE
  8
daiko
 10
39.043295
 20
13.277133
 30
0.000000
 11
40.468758
 21
13.679794
 31
0.000000
  0
LINE
  8
daiko
 10
40.549579
 20
13.602220
 30
0.000000
 11
39.034365
 21
13.174207
 31
0.000000
  0
LINE
  8
daiko
 10
40.754988
 20
13.957999
 30
0.000000
 11
40.549579
 21
13.602220
 31
0.000000
  0
LINE
  8
daiko
 10
40.754988
 20
13.046016
 30
0.000000
 11
40.754988
 21
13.957999
 31
0.000000
  0
LINE
  8
daiko
 10
40.878543
 20
12.891401
 30
0.000000
 11
40.878543
 21
13.920780
 31
0.000000
  0
LINE
  8
daiko
 10
48.037605
 20
14.745990
 30
0.000000
 11
41.110289
 21
12.780815
 31
0.000000
  0
LINE
  8
daiko
 10
47.942602
 20
12.561352
 30
0.000000
 11
47.942602
 21
14.719039
 31
0.000000
  0
LINE
  8
daiko
 10
4.049731
 20
0.004899
 30
0.000000
 11
47.942602
 21
12.561352
 31
0.000000
  0
ARC
  8
daiko
 10
4.031446
 20
0.036570
 30
0.000000
 40
0.036570
 50
228.685764
 51
11.314236
  0
LINE
  8
daiko
 10
4.167964
 20
3.645320
 30
0.000000
 11
13.630237
 21
6.263968
 31
0.000000
  0
LINE
  8
daiko
 10
13.914400
 20
6.019787
 30
0.000000
 11
13.658063
 21
6.170334
 31
0.000000
  0
LINE
  8
daiko
 10
13.923330
 20
6.122713
 30
0.000000
 11
13.591653
 21
6.314206
 31
0.000000
  0
LINE
  8
daiko
 10
13.914400
 20
6.019787
 30
0.000000
 11
14.977291
 21
6.320029
 31
0.000000
  0
LINE
  8
daiko
 10
13.923330
 20
6.122713
 30
0.000000
 11
14.806206
 21
6.372105
 31
0.000000
  0
ARC
  8
daiko
 10
13.479863
 20
5.099099
 30
0.000000
 40
0.178200
 50
285.815789
 51
0.000000
  0
ARC
  8
daiko
 10
13.437210
 20
6.155654
 30
0.000000
 40
0.221340
 50
3.802736
 51
74.247750
  0
ARC
  8
daiko
 10
15.539430
 20
6.752187
 30
0.000000
 40
0.219605
 50
3.700322
 51
73.613734
  0
LINE
  8
daiko
 10
15.601383
 20
6.962873
 30
0.000000
 11
15.454115
 21
6.676325
 31
0.000000
  0
LINE
  8
daiko
 10
15.635023
 20
6.803578
 30
0.000000
 11
15.521896
 21
6.607637
 31
0.000000
  0
LINE
  8
daiko
 10
15.635023
 20
6.803578
 30
0.000000
 11
15.635023
 21
6.455983
 31
0.000000
  0
LINE
  8
daiko
 10
15.758578
 20
6.766360
 30
0.000000
 11
15.758578
 21
6.158572
 31
0.000000
  0
LINE
  8
daiko
 10
15.601383
 20
6.962873
 30
0.000000
 11
14.622953
 21
7.465727
 31
0.000000
  0
LINE
  8
daiko
 10
13.497299
 20
6.368682
 30
0.000000
 11
12.515728
 21
6.873165
 31
0.000000
  0
LINE
  8
daiko
 10
13.658063
 20
5.099099
 30
0.000000
 11
13.658063
 21
6.170334
 31
0.000000
  0
LINE
  8
daiko
 10
4.521827
 20
2.379312
 30
0.000000
 11
13.528431
 21
4.927645
 31
0.000000
  0
LINE
  8
daiko
 10
3.189207
 20
4.250504
 30
0.000000
 11
47.951999
 21
16.838012
 31
0.000000
  0
LINE
  8
daiko
 10
48.414976
 20
18.210129
 30
0.000000
 11
3.397871
 21
5.722484
 31
0.000000
  0
LINE
  8
daiko
 10
3.099982
 20
5.894470
 30
0.000000
 11
48.118249
 21
18.386841
 31
0.000000
  0
LINE
  8
daiko
 10
0.802343
 20
7.562989
 30
0.000000
 11
45.755823
 21
19.812897
 31
0.000000
  0
LINE
  8
daiko
 10
0.039790
 20
7.637170
 30
0.000000
 11
45.366730
 21
19.955210
 31
0.000000
  0
ARC
  8
daiko
 10
0.203238
 20
7.594134
 30
0.000000
 40
0.085023
 50
57.415088
 51
94.390401
  0
ARC
  8
daiko
 10
0.061710
 20
7.578617
 30
0.000000
 40
0.061710
 50
49.226727
 51
194.979895
  0
ARC
  8
daiko
 10
1.330718
 20
4.147712
 30
0.000000
 40
0.312007
 50
177.592959
 51
212.376470
  0
ARC
  8
daiko
 10
1.186544
 20
4.187023
 30
0.000000
 40
0.264336
 50
177.158545
 51
243.164144
  0
ARC
  8
daiko
 10
1.199644
 20
1.783023
 30
0.000000
 40
0.132625
 50
183.101069
 51
236.898931
  0
LINE
  8
daiko
 10
1.018986
 20
5.249346
 30
0.000000
 11
1.018986
 21
4.160816
 31
0.000000
  0
LINE
  8
daiko
 10
0.922533
 20
5.308364
 30
0.000000
 11
0.922533
 21
4.200127
 31
0.000000
  0
LINE
  8
daiko
 10
1.067213
 20
1.775848
 30
0.000000
 11
1.067213
 21
5.219844
 31
0.000000
  0
LINE
  8
daiko
 10
4.007303
 20
0.009102
 30
0.000000
 11
1.127215
 21
1.671922
 31
0.000000
  0
ARC
  8
daiko
 10
4.328570
 20
2.871988
 30
0.000000
 40
0.529225
 50
273.362001
 51
291.418076
  0
ARC
  8
daiko
 10
4.359606
 20
2.610975
 30
0.000000
 40
0.267300
 50
180.000000
 51
270.000000
  0
ARC
  8
daiko
 10
4.459609
 20
2.639270
 30
0.000000
 40
0.267300
 50
180.000000
 51
283.561910
  0
ARC
  8
daiko
 10
3.967701
 20
3.542775
 30
0.000000
 40
0.224991
 50
3.341489
 51
50.887950
  0
LINE
  8
daiko
 10
4.192309
 20
3.555889
 30
0.000000
 11
4.192309
 21
2.639270
 31
0.000000
  0
LINE
  8
daiko
 10
3.143178
 20
4.272744
 30
0.000000
 11
4.109634
 21
3.717349
 31
0.000000
  0
ARC
  8
daiko
 10
3.102085
 20
4.006772
 30
0.000000
 40
0.154856
 50
56.945083
 51
98.968210
  0
ARC
  8
daiko
 10
2.690556
 20
4.308062
 30
0.000000
 40
0.232284
 50
236.945076
 51
278.968217
  0
ARC
  8
daiko
 10
2.650981
 20
4.357106
 30
0.000000
 40
0.154856
 50
236.945083
 51
278.968210
  0
LINE
  8
daiko
 10
2.675121
 20
4.204143
 30
0.000000
 11
2.834464
 21
4.240949
 31
0.000000
  0
LINE
  8
daiko
 10
2.566516
 20
4.227314
 30
0.000000
 11
2.468278
 21
4.284032
 31
0.000000
  0
LINE
  8
daiko
 10
2.563859
 20
4.113374
 30
0.000000
 11
2.488148
 21
4.157086
 31
0.000000
  0
LINE
  8
daiko
 10
3.077945
 20
4.159735
 30
0.000000
 11
2.726766
 21
4.078619
 31
0.000000
  0
LINE
  8
daiko
 10
4.092306
 20
3.613626
 30
0.000000
 11
3.186550
 21
4.136564
 31
0.000000
  0
LINE
  8
daiko
 10
4.067305
 20
0.043744
 30
0.000000
 11
4.092306
 21
3.613626
 31
0.000000
  0
ARC
  8
daiko
 10
0.914514
 20
5.720028
 30
0.000000
 40
0.348469
 50
215.230317
 51
243.814965
  0
ARC
  8
daiko
 10
3.041448
 20
4.683993
 30
0.000000
 40
0.477112
 50
250.272554
 51
265.921602
  0
ARC
  8
daiko
 10
3.020166
 20
4.356202
 30
0.000000
 40
0.148651
 50
265.118285
 51
325.844977
  0
ARC
  8
daiko
 10
1.777031
 20
5.546966
 30
0.000000
 40
1.868154
 50
316.993952
 51
1.162121
  0
ARC
  8
daiko
 10
3.424180
 20
5.578397
 30
0.000000
 40
0.220715
 50
1.676759
 51
56.874486
  0
LINE
  8
daiko
 10
3.246999
 20
5.934895
 30
0.000000
 11
3.544888
 21
5.762909
 31
0.000000
  0
LINE
  8
daiko
 10
0.249027
 20
7.665775
 30
0.000000
 11
0.540339
 21
7.497586
 31
0.000000
  0
ARC
  8
daiko
 10
1.074878
 20
6.264838
 30
0.000000
 40
1.326451
 50
101.856526
 51
108.618699
  0
ARC
  8
daiko
 10
1.053155
 20
6.131206
 30
0.000000
 40
1.453584
 50
54.514418
 51
99.935932
  0
ARC
  8
daiko
 10
-0.073880
 20
4.036260
 30
0.000000
 40
3.825317
 50
29.757743
 51
58.988575
  0
ARC
  8
daiko
 10
0.906138
 20
6.090781
 30
0.000000
 40
1.453584
 50
54.514418
 51
110.381489
  0
ARC
  8
daiko
 10
-0.220897
 20
3.995836
 30
0.000000
 40
3.825317
 50
29.757743
 51
58.988575
  0
LINE
  8
daiko
 10
3.397871
 20
5.722484
 30
0.000000
 11
3.099982
 21
5.894470
 31
0.000000
  0
ARC
  8
daiko
 10
3.278153
 20
5.538245
 30
0.000000
 40
0.219718
 50
1.613040
 51
56.984192
  0
ARC
  8
daiko
 10
1.737831
 20
5.508524
 30
0.000000
 40
1.760319
 50
316.571412
 51
1.168776
  0
ARC
  8
daiko
 10
2.880401
 20
4.411891
 30
0.000000
 40
0.177007
 50
229.614377
 51
320.118112
  0
LINE
  8
daiko
 10
2.439927
 20
4.465157
 30
0.000000
 11
2.765713
 21
4.277064
 31
0.000000
  0
LINE
  8
daiko
 10
0.760744
 20
5.407322
 30
0.000000
 11
1.271742
 21
5.094727
 31
0.000000
  0
ARC
  8
daiko
 10
4.228730
 20
7.742782
 30
0.000000
 40
4.230469
 50
182.440157
 51
211.712122
  0
LINE
  8
daiko
 10
0.399899
 20
7.453363
 30
0.000000
 11
0.102010
 21
7.625350
 31
0.000000
  0
TEXT
  8
daiko
 10
0.000000
 20
-10.000000
 30
0.000000
 40
4.000000
  1
LZY-91356NTF
  7
BIGFONT
  0
TEXT
  8
daiko
 10
0.000000
 20
-14.000000
 30
0.000000
 40
3.000000
  1
LED7W          4000K
  7
BIGFONT
  0
TEXT
  8
daiko
 10
0.000000
 20
-18.000000
 30
0.000000
 40
3.000000
  1
演色性 Ra83    ｼﾙﾊﾞｰ
  7
BIGFONT
  0
TEXT
  8
daiko
 10
0.000000
 20
-22.000000
 30
0.000000
 40
3.000000
  1
巾最大81 長516 高最大69mm
  7
BIGFONT
  0
ENDSEC
  0
EOF
