  0
SECTION
  2
HEADER
  9
$ACADVER
  1
AC1009
  9
$INSBASE
 10
0.0
 20
0.0
 30
0.0
  9
$EXTMIN
 10
0.0
 20
-10.0
 30
0.0
  9
$EXTMAX
 10
50.000188999999999
 20
15.136479701331
 30
0.0
  9
$LIMMIN
 10
0.0
 20
0.0
  9
$LIMMAX
 10
12.0
 20
9.0
  9
$ORTHOMODE
 70
     0
  9
$REGENMODE
 70
     1
  9
$FILLMODE
 70
     1
  9
$QTEXTMODE
 70
     0
  9
$MIRRTEXT
 70
     0
  9
$DRAGMODE
 70
     2
  9
$LTSCALE
 40
1.0
  9
$OSMODE
 70
    37
  9
$ATTMODE
 70
     1
  9
$TEXTSIZE
 40
0.0
  9
$TRACEWID
 40
0.05
  9
$TEXTSTYLE
  7
STANDARD
  9
$CLAYER
  8
0
  9
$CELTYPE
  6
CONTINUOUS
  9
$CECOLOR
 62
   256
  9
$DIMSCALE
 40
1.0
  9
$DIMASZ
 40
0.18
  9
$DIMEXO
 40
0.0625
  9
$DIMDLI
 40
0.38
  9
$DIMRND
 40
0.0
  9
$DIMDLE
 40
0.0
  9
$DIMEXE
 40
0.18
  9
$DIMTP
 40
0.0
  9
$DIMTM
 40
0.0
  9
$DIMTXT
 40
0.18
  9
$DIMCEN
 40
0.09
  9
$DIMTSZ
 40
0.0
  9
$DIMTOL
 70
     0
  9
$DIMLIM
 70
     0
  9
$DIMTIH
 70
     1
  9
$DIMTOH
 70
     1
  9
$DIMSE1
 70
     0
  9
$DIMSE2
 70
     0
  9
$DIMTAD
 70
     0
  9
$DIMZIN
 70
     0
  9
$DIMBLK
  1

  9
$DIMASO
 70
     1
  9
$DIMSHO
 70
     1
  9
$DIMPOST
  1

  9
$DIMAPOST
  1

  9
$DIMALT
 70
     0
  9
$DIMALTD
 70
     2
  9
$DIMALTF
 40
25.399999999999999
  9
$DIMLFAC
 40
1.0
  9
$DIMTOFL
 70
     0
  9
$DIMTVP
 40
0.0
  9
$DIMTIX
 70
     0
  9
$DIMSOXD
 70
     0
  9
$DIMSAH
 70
     0
  9
$DIMBLK1
  1

  9
$DIMBLK2
  1

  9
$DIMSTYLE
  2
STANDARD
  9
$DIMCLRD
 70
     0
  9
$DIMCLRE
 70
     0
  9
$DIMCLRT
 70
     0
  9
$DIMTFAC
 40
1.0
  9
$DIMGAP
 40
0.09
  9
$LUNITS
 70
     2
  9
$LUPREC
 70
     4
  9
$SKETCHINC
 40
0.1
  9
$FILLETRAD
 40
0.0
  9
$AUNITS
 70
     0
  9
$AUPREC
 70
     0
  9
$MENU
  1
.
  9
$ELEVATION
 40
0.0
  9
$PELEVATION
 40
0.0
  9
$THICKNESS
 40
0.0
  9
$LIMCHECK
 70
     0
  9
$BLIPMODE
 70
     0
  9
$CHAMFERA
 40
0.0
  9
$CHAMFERB
 40
0.0
  9
$SKPOLY
 70
     0
  9
$TDCREATE
 40
2458281.7392072799
  9
$TDUPDATE
 40
2458281.7614349648
  9
$TDINDWG
 40
0.0000382523
  9
$TDUSRTIMER
 40
0.0000382523
  9
$USRTIMER
 70
     1
  9
$ANGBASE
 50
0.0
  9
$ANGDIR
 70
     0
  9
$PDMODE
 70
     0
  9
$PDSIZE
 40
0.0
  9
$PLINEWID
 40
0.0
  9
$COORDS
 70
     1
  9
$SPLFRAME
 70
     0
  9
$SPLINETYPE
 70
     6
  9
$SPLINESEGS
 70
     8
  9
$ATTDIA
 70
     0
  9
$ATTREQ
 70
     1
  9
$HANDLING
 70
     1
  9
$HANDSEED
  5
B7
  9
$SURFTAB1
 70
     6
  9
$SURFTAB2
 70
     6
  9
$SURFTYPE
 70
     6
  9
$SURFU
 70
     6
  9
$SURFV
 70
     6
  9
$UCSNAME
  2

  9
$UCSORG
 10
0.0
 20
0.0
 30
0.0
  9
$UCSXDIR
 10
1.0
 20
0.0
 30
0.0
  9
$UCSYDIR
 10
0.0
 20
1.0
 30
0.0
  9
$PUCSNAME
  2

  9
$PUCSORG
 10
0.0
 20
0.0
 30
0.0
  9
$PUCSXDIR
 10
1.0
 20
0.0
 30
0.0
  9
$PUCSYDIR
 10
0.0
 20
1.0
 30
0.0
  9
$USERI1
 70
     0
  9
$USERI2
 70
     0
  9
$USERI3
 70
     0
  9
$USERI4
 70
     0
  9
$USERI5
 70
     0
  9
$USERR1
 40
0.0
  9
$USERR2
 40
0.0
  9
$USERR3
 40
0.0
  9
$USERR4
 40
0.0
  9
$USERR5
 40
0.0
  9
$WORLDVIEW
 70
     1
  9
$SHADEDGE
 70
     3
  9
$SHADEDIF
 70
    70
  9
$TILEMODE
 70
     1
  9
$MAXACTVP
 70
    64
  9
$PLIMCHECK
 70
     0
  9
$PEXTMIN
 10
1.0000000000000000E+020
 20
1.0000000000000000E+020
 30
1.0000000000000000E+020
  9
$PEXTMAX
 10
-1.0000000000000000E+020
 20
-1.0000000000000000E+020
 30
-1.0000000000000000E+020
  9
$PLIMMIN
 10
0.0
 20
0.0
  9
$PLIMMAX
 10
12.0
 20
9.0
  9
$UNITMODE
 70
     0
  9
$VISRETAIN
 70
     1
  9
$PLINEGEN
 70
     0
  9
$PSLTSCALE
 70
     1
  0
ENDSEC
  0
SECTION
  2
TABLES
  0
TABLE
  2
VPORT
 70
     2
  0
VPORT
  2
*ACTIVE
 70
     0
 10
0.0
 20
0.0
 11
1.0
 21
1.0
 12
25.000094616415751
 22
2.567782958860604
 13
0.0
 23
0.0
 14
1.0
 24
1.0
 15
0.0
 25
0.0
 16
0.0
 26
0.0
 36
1.0
 17
0.0
 27
0.0
 37
0.0
 40
25.365487899131399
 41
2.05722891566265
 42
50.0
 43
0.0
 44
0.0
 50
0.0
 51
0.0
 71
     0
 72
   100
 73
     1
 74
     1
 75
     0
 76
     0
 77
     0
 78
     0
  0
ENDTAB
  0
TABLE
  2
LTYPE
 70
     8
  0
LTYPE
  2
CONTINUOUS
 70
     0
  3
Solid line
 72
    65
 73
     0
 40
0.0
  0
LTYPE
  2
CENTER_DASH_DASH
 70
     0
  3
Center_Dash_Dash
 72
    65
 73
     6
 40
22.0
 49
12.0
 49
-3.0
 49
0.5
 49
-3.0
 49
0.5
 49
-3.0
  0
LTYPE
  2
DASHED
 70
     0
  3
Dashed
 72
    65
 73
     2
 40
15.0
 49
12.0
 49
-3.0
  0
LTYPE
  2
DASH_CENTER
 70
     0
  3
Dash_Center
 72
    65
 73
     4
 40
36.0
 49
24.0
 49
-3.0
 49
6.0
 49
-3.0
  0
LTYPE
  2
DOTTED
 70
     0
  3
Dotted
 72
    65
 73
     2
 40
3.5
 49
0.5
 49
-3.0
  0
LTYPE
  2
DOT_CENTER
 70
     0
  3
Dot_Center
 72
    65
 73
     4
 40
2.0
 49
1.25
 49
-0.25
 49
0.25
 49
-0.25
  0
LTYPE
  2
LONG_DASHED
 70
     0
  3
Long_Dashed
 72
    65
 73
     2
 40
2.0
 49
1.5
 49
-0.5
  0
LTYPE
  2
PHANTOM
 70
     0
  3
Phantom
 72
    65
 73
     6
 40
2.5
 49
1.25
 49
-0.25
 49
0.25
 49
-0.25
 49
0.25
 49
-0.25
  0
ENDTAB
  0
TABLE
  2
LAYER
 70
     2
  0
LAYER
  2
0
 70
     0
 62
     7
  6
CONTINUOUS
  0
LAYER
  2
DAIKO
 70
     0
 62
     7
  6
CONTINUOUS
  0
ENDTAB
  0
TABLE
  2
STYLE
 70
     3
  0
STYLE
  2
STANDARD
 70
     0
 40
0.0
 41
1.0
 50
0.0
 71
     0
 42
0.0
  3
txt
  4

  0
STYLE
  2
BIGFONT
 70
     0
 40
1.0
 41
1.0
 50
0.0
 71
     0
 42
0.0
  3
txt
  4
bigfont
  0
STYLE
  2
CONVERTER_1
 70
     0
 40
0.0
 41
0.9
 50
0.0
 71
     0
 42
0.0
  3
txt.shx
  4

  0
ENDTAB
  0
TABLE
  2
VIEW
 70
     0
  0
ENDTAB
  0
TABLE
  2
UCS
 70
     0
  0
ENDTAB
  0
TABLE
  2
APPID
 70
     1
  0
APPID
  2
ACAD
 70
     0
  0
ENDTAB
  0
TABLE
  2
DIMSTYLE
 70
     1
  0
DIMSTYLE
  2
STANDARD
 70
     0
  3

  4

  5

  6

  7

 40
1.0
 41
0.18
 42
0.0625
 43
0.38
 44
0.18
 45
0.0
 46
0.0
 47
0.0
 48
0.0
140
0.18
141
0.09
142
0.0
143
25.399999999999999
144
1.0
145
0.0
146
1.0
147
0.09
 71
     0
 72
     0
 73
     1
 74
     1
 75
     0
 76
     0
 77
     0
 78
     0
170
     0
171
     2
172
     0
173
     0
174
     0
175
     0
176
     0
177
     0
178
     0
  0
ENDTAB
  0
ENDSEC
  0
SECTION
  2
BLOCKS
  0
BLOCK
  8
0
  2
$MODEL_SPACE
 70
     0
 10
0.0
 20
0.0
 30
0.0
  3
$MODEL_SPACE
  1

  0
ENDBLK
  5
24
  8
0
  0
BLOCK
 67
     1
  8
0
  2
$PAPER_SPACE
 70
     0
 10
0.0
 20
0.0
 30
0.0
  3
$PAPER_SPACE
  1

  0
ENDBLK
  5
20
 67
     1
  8
0
  0
ENDSEC
  0
SECTION
  2
ENTITIES
  0
ARC
  5
33
  8
DAIKO
 10
0.06406
 20
2.1262989999999991
 30
0.0
 40
0.06406
 50
103.65438399999999
 51
184.40172799999991
  0
ARC
  5
34
  8
DAIKO
 10
47.98789399999999
 20
15.014514
 30
0.0
 40
0.01863
 50
104.498778
 51
135.33141699999999
  0
ARC
  5
35
  8
DAIKO
 10
49.546221000000003
 20
14.210426
 30
0.0
 40
0.081467
 50
2.1997619999999989
 51
72.800238000000007
  0
ARC
  5
36
  8
DAIKO
 10
49.542190000000012
 20
14.402366000000001
 30
0.0
 40
0.085128
 50
286.02606299999991
 51
358.62498199999999
  0
ARC
  5
37
  8
DAIKO
 10
49.505671
 20
14.493278999999999
 30
0.0
 40
0.122032
 50
1.9974590000000001
 51
56.736429999999999
  0
ARC
  5
38
  8
DAIKO
 10
48.048687000000001
 20
12.346593
 30
0.0
 40
2.716445999999999
 50
55.875269999999993
 51
74.647750000000016
  0
ARC
  5
39
  8
DAIKO
 10
48.192585999999999
 20
12.843406999999999
 30
0.0
 40
2.1992750000000001
 50
74.836124999999996
 51
88.279802000000004
  0
ARC
  5
3A
  8
DAIKO
 10
48.204031999999998
 20
13.271689
 30
0.0
 40
1.7708429999999991
 50
88.234018999999975
 51
98.098264999999984
  0
ARC
  5
3B
  8
DAIKO
 10
48.239612999999999
 20
13.173543
 30
0.0
 40
1.876604999999999
 50
85.487782999999993
 51
97.852329000000026
  0
ARC
  5
3C
  8
DAIKO
 10
48.221626000000001
 20
12.872158000000001
 30
0.0
 40
2.1784789999999998
 50
77.471842000000009
 51
85.639805999999993
  0
ARC
  5
3D
  8
DAIKO
 10
48.151226000000001
 20
12.563173000000001
 30
0.0
 40
2.4953780000000001
 50
66.457464000000002
 51
77.432819999999992
  0
ARC
  5
3E
  8
DAIKO
 10
48.019433999999997
 20
12.252371
 30
0.0
 40
2.8329539999999991
 50
55.863824000000008
 51
66.524640000000005
  0
ARC
  5
3F
  8
DAIKO
 10
48.55259199999999
 20
12.671802
 30
0.0
 40
2.4550190000000001
 50
55.006273999999991
 51
61.567347000000012
  0
ARC
  5
40
  8
DAIKO
 10
48.522793999999998
 20
12.705123
 30
0.0
 40
2.4402680000000001
 50
60.579526999999999
 51
85.101968000000014
  0
ARC
  5
41
  8
DAIKO
 10
48.583465999999987
 20
13.267367
 30
0.0
 40
1.874938
 50
85.482268000000005
 51
97.857845000000012
  0
ARC
  5
42
  8
DAIKO
 10
49.878107
 20
14.592801
 30
0.0
 40
0.122167
 50
2.1382310000000002
 51
47.581494999999997
  0
ARC
  5
43
  8
DAIKO
 10
49.533689000000003
 20
14.500510999999999
 30
0.0
 40
0.122688
 50
2.1960229999999989
 51
52.026124000000003
  0
ARC
  5
44
  8
DAIKO
 10
49.548808999999999
 20
13.480622
 30
0.0
 40
0.078851
 50
1.613645999999999
 51
38.121963999999998
  0
ARC
  5
45
  8
DAIKO
 10
49.584031000000003
 20
13.681125
 30
0.0
 40
0.071779
 50
134.95171500000001
 51
225.04828499999999
  0
ARC
  5
46
  8
DAIKO
 10
49.580228999999989
 20
13.827619
 30
0.0
 40
0.047416
 50
310.21078199999999
 51
1.5107740000000001
  0
ARC
  5
47
  8
DAIKO
 10
2.006950999999999
 20
0.7421410000000001
 30
0.0
 40
0.085385
 50
2.441463999999999
 51
48.436165000000003
  0
ARC
  5
48
  8
DAIKO
 10
2.0464090000000001
 20
1.089737
 30
0.0
 40
0.045896
 50
291.99747000000002
 51
2.5828919999999989
  0
ARC
  5
49
  8
DAIKO
 10
2.0101580000000001
 20
1.4731430000000001
 30
0.0
 40
0.082168
 50
2.3344969999999998
 51
49.428764999999999
  0
ARC
  5
4A
  8
DAIKO
 10
1.999202999999999
 20
1.6687299999999989
 30
0.0
 40
0.093123
 50
313.75095700000003
 51
2.185397
  0
ARC
  5
4B
  8
DAIKO
 10
0.427204
 20
2.2711419999999989
 30
0.0
 40
0.018489
 50
115.647485
 51
139.57966200000001
  0
ARC
  5
4C
  8
DAIKO
 10
0.6651920000000001
 20
0.565703
 30
0.0
 40
1.7395860000000001
 50
89.768356999999995
 51
98.129295999999997
  0
ARC
  5
4D
  8
DAIKO
 10
0.6707760000000002
 20
0.259223
 30
0.0
 40
2.0460519999999991
 50
82.854112999999984
 51
89.959423000000015
  0
ARC
  5
4E
  8
DAIKO
 10
0.622698
 20
-0.063422
 30
0.0
 40
2.372183999999999
 50
69.120688000000001
 51
82.671296999999996
  0
ARC
  5
4F
  8
DAIKO
 10
0.453672
 20
-0.5025810000000001
 30
0.0
 40
2.8427470000000001
 50
56.147711999999999
 51
69.092268000000004
  0
ARC
  5
50
  8
DAIKO
 10
1.9689169999999989
 20
1.7554359999999991
 30
0.0
 40
0.123444
 50
2.3363659999999991
 51
56.397522000000002
  0
ARC
  5
51
  8
DAIKO
 10
1.940634999999999
 20
1.74797
 30
0.0
 40
0.123059
 50
2.2447680000000001
 51
56.489119999999993
  0
ARC
  5
52
  8
DAIKO
 10
0.352535
 20
-0.6298630000000001
 30
0.0
 40
2.9824559999999991
 50
56.271301000000001
 51
58.784320999999991
  0
ARC
  5
53
  8
DAIKO
 10
0.4501560000000001
 20
-0.457099
 30
0.0
 40
2.7841169999999988
 50
58.659846999999992
 51
69.185209
  0
ARC
  5
54
  8
DAIKO
 10
0.622394
 20
0.036882
 30
0.0
 40
2.2612190000000001
 50
68.816822000000002
 51
88.170693999999983
  0
ARC
  5
55
  8
DAIKO
 10
0.643648
 20
0.4610720000000001
 30
0.0
 40
1.8365830000000001
 50
88.410977000000003
 51
97.921307000000013
  0
ARC
  5
56
  8
DAIKO
 10
0.301294
 20
0.388306
 30
0.0
 40
1.817602999999999
 50
85.286279000000007
 51
98.053834000000009
  0
ARC
  5
57
  8
DAIKO
 10
0.264361
 20
-0.111693
 30
0.0
 40
2.3189500000000001
 50
68.995046000000002
 51
85.392034999999993
  0
ARC
  5
58
  8
DAIKO
 10
0.132625
 20
-0.4906340000000001
 30
0.0
 40
2.7199610000000001
 50
55.326118999999998
 51
69.265695999999991
  0
ARC
  5
59
  8
DAIKO
 10
1.598808999999999
 20
1.6566359999999991
 30
0.0
 40
0.120956
 50
1.8976939999999991
 51
47.822032
  0
ARC
  5
5A
  8
DAIKO
 10
1.482953
 20
1.4798020000000001
 30
0.0
 40
0.122201
 50
2.1997619999999989
 51
72.800238000000007
  0
ARC
  5
5B
  8
DAIKO
 10
0.179462
 20
1.888569999999999
 30
0.0
 40
0.064815
 50
70.781132999999997
 51
184.21886699999999
  0
LINE
  5
5C
  8
DAIKO
 10
47.954571999999999
 20
15.024872999999999
 30
0.0
 11
0.4192020000000001
 21
2.2878090000000002
 31
0.0
  0
LINE
  5
5D
  8
DAIKO
 10
49.504002999999997
 20
14.303029
 30
0.0
 11
2.0636000000000001
 21
1.5914109999999999
 31
0.0
  0
LINE
  5
5E
  8
DAIKO
 10
49.512995000000011
 20
14.527003000000001
 30
0.0
 11
2.117375
 21
1.8273849999999989
 31
0.0
  0
LINE
  5
5F
  8
DAIKO
 10
5.3449970000000002
 20
1.9423939999999991
 30
0.0
 11
24.427019000000001
 21
7.0554069999999998
 31
0.0
  0
LINE
  5
60
  8
DAIKO
 10
46.374890000000001
 20
12.849595000000001
 30
0.0
 11
27.292867999999999
 21
7.7365820000000003
 31
0.0
  0
LINE
  5
61
  8
DAIKO
 10
46.374890000000001
 20
12.632251999999999
 30
0.0
 11
27.292867999999999
 21
7.519239999999999
 31
0.0
  0
LINE
  5
62
  8
DAIKO
 10
5.3449970000000002
 20
0.971396
 30
0.0
 11
24.427019000000001
 21
6.0844089999999991
 31
0.0
  0
LINE
  5
63
  8
DAIKO
 10
1.6050649999999991
 20
1.484491999999999
 30
0.0
 11
1.6050649999999991
 21
0.030716
 31
0.0
  0
LINE
  5
64
  8
DAIKO
 10
49.627293999999999
 20
14.400323
 30
0.0
 11
49.627628999999999
 21
14.497533000000001
 31
0.0
  0
LINE
  5
65
  8
DAIKO
 10
49.656286999999992
 20
12.844569999999999
 30
0.0
 11
49.627628999999999
 21
12.852249
 31
0.0
  0
LINE
  5
66
  8
DAIKO
 10
2.092258999999999
 20
0.099827
 30
0.0
 11
2.0636000000000001
 21
0.107506
 31
0.0
  0
LINE
  5
67
  8
DAIKO
 10
49.627628999999999
 20
12.836891
 30
0.0
 11
49.240738999999998
 21
12.733224
 31
0.0
  0
LINE
  5
68
  8
DAIKO
 10
46.374890000000001
 20
12.947212
 30
0.0
 11
49.240738999999998
 21
13.715114
 31
0.0
  0
LINE
  5
69
  8
DAIKO
 10
46.374890000000001
 20
11.947521
 30
0.0
 11
46.374890000000001
 21
12.947212
 31
0.0
  0
LINE
  5
6A
  8
DAIKO
 10
49.240738999999998
 20
12.715422999999999
 30
0.0
 11
46.374890000000001
 21
11.947521
 31
0.0
  0
LINE
  5
6B
  8
DAIKO
 10
49.240738999999998
 20
13.715114
 30
0.0
 11
49.240738999999998
 21
12.715422999999999
 31
0.0
  0
LINE
  5
6C
  8
DAIKO
 10
49.240738999999998
 20
13.704223000000001
 30
0.0
 11
49.572209999999998
 21
13.79304
 31
0.0
  0
LINE
  5
6D
  8
DAIKO
 10
2.092258999999999
 20
0.099827
 30
0.0
 11
2.479147999999999
 21
0.203494
 31
0.0
  0
LINE
  5
6E
  8
DAIKO
 10
5.3449970000000002
 20
0.9535940000000001
 30
0.0
 11
2.479147999999999
 21
0.185692
 31
0.0
  0
LINE
  5
6F
  8
DAIKO
 10
5.3449970000000002
 20
1.9532860000000001
 30
0.0
 11
5.3449970000000002
 21
0.9535940000000001
 31
0.0
  0
LINE
  5
70
  8
DAIKO
 10
2.479147999999999
 20
1.1853839999999991
 30
0.0
 11
5.3449970000000002
 21
1.9532860000000001
 31
0.0
  0
LINE
  5
71
  8
DAIKO
 10
2.479147999999999
 20
0.185692
 30
0.0
 11
2.479147999999999
 21
1.1853839999999991
 31
0.0
  0
LINE
  5
72
  8
DAIKO
 10
2.479147999999999
 20
0.870425
 30
0.0
 11
2.1168779999999989
 21
0.773354
 31
0.0
  0
LINE
  5
73
  8
DAIKO
 10
2.479147999999999
 20
1.087766
 30
0.0
 11
2.0636000000000001
 21
0.9764209999999998
 31
0.0
  0
LINE
  5
74
  8
DAIKO
 10
49.491588
 20
13.684711999999999
 30
0.0
 11
49.240738999999998
 21
13.617497
 31
0.0
  0
LINE
  5
75
  8
DAIKO
 10
2.1168779999999989
 20
1.077423
 30
0.0
 11
2.479147999999999
 21
1.1744920000000001
 31
0.0
  0
LINE
  5
76
  8
DAIKO
 10
49.593266999999997
 20
13.494614
 30
0.0
 11
49.240738999999998
 21
13.400154000000001
 31
0.0
  0
LINE
  5
77
  8
DAIKO
 10
2.092258999999999
 20
1.091804999999999
 30
0.0
 11
2.092258999999999
 21
1.476489999999999
 31
0.0
  0
LINE
  5
78
  8
DAIKO
 10
2.092258999999999
 20
0.7457780000000001
 30
0.0
 11
2.092258999999999
 21
0.099827
 31
0.0
  0
LINE
  5
79
  8
DAIKO
 10
1.7196990000000001
 20
0.0
 30
0.0
 11
2.0636000000000001
 21
0.092148
 31
0.0
  0
LINE
  5
7A
  8
DAIKO
 10
2.092258999999999
 20
1.760468999999999
 30
0.0
 11
2.092258999999999
 21
1.6722809999999999
 31
0.0
  0
LINE
  5
7B
  8
DAIKO
 10
49.627628999999999
 20
13.482842
 30
0.0
 11
49.627628999999999
 21
12.836891
 31
0.0
  0
LINE
  5
7C
  8
DAIKO
 10
49.627628999999999
 20
14.213554
 30
0.0
 11
49.627628999999999
 21
13.828868999999999
 31
0.0
  0
LINE
  5
7D
  8
DAIKO
 10
49.610841000000001
 20
13.791408000000001
 30
0.0
 11
49.533318999999999
 21
13.731923
 31
0.0
  0
LINE
  5
7E
  8
DAIKO
 10
49.533318999999999
 20
13.630328
 30
0.0
 11
49.610841000000001
 21
13.529299
 31
0.0
  0
LINE
  5
7F
  8
DAIKO
 10
49.515861000000001
 20
14.302841000000001
 30
0.0
 11
49.570312000000001
 21
14.288251000000001
 31
0.0
  0
LINE
  5
80
  8
DAIKO
 10
49.656286999999992
 20
12.844569999999999
 30
0.0
 11
50.000188999999999
 21
12.936718000000001
 31
0.0
  0
LINE
  5
81
  8
DAIKO
 10
49.656286999999992
 20
14.565398
 30
0.0
 11
49.956744999999991
 21
14.645906
 31
0.0
  0
LINE
  5
82
  8
DAIKO
 10
47.983229999999992
 20
15.032552000000001
 30
0.0
 11
48.327131999999999
 21
15.124700000000001
 31
0.0
  0
LINE
  5
83
  8
DAIKO
 10
49.656286999999992
 20
14.505210999999999
 30
0.0
 11
49.656286999999992
 21
12.844569999999999
 31
0.0
  0
LINE
  5
84
  8
DAIKO
 10
0.344091
 20
0.4279320000000001
 30
0.0
 11
0.401408
 21
0.4125740000000001
 31
0.0
  0
LINE
  5
85
  8
DAIKO
 10
0.390544
 20
2.2801299999999989
 30
0.0
 11
0.046642
 21
2.187981999999999
 31
0.0
  0
LINE
  5
86
  8
DAIKO
 10
1.7196990000000001
 20
1.7208279999999989
 30
0.0
 11
2.0175489999999998
 21
1.8006369999999989
 31
0.0
  0
LINE
  5
87
  8
DAIKO
 10
2.0636000000000001
 20
1.7527900000000001
 30
0.0
 11
2.0636000000000001
 21
0.092148
 31
0.0
  0
LINE
  5
88
  8
DAIKO
 10
50.000188999999999
 20
14.59736
 30
0.0
 11
50.000188999999999
 21
12.936718000000001
 31
0.0
  0
LINE
  5
89
  8
DAIKO
 10
1.318479
 20
0.107506
 30
0.0
 11
1.318479
 21
0.166845
 31
0.0
  0
LINE
  5
8A
  8
DAIKO
 10
1.318479
 20
0.166845
 30
0.0
 11
1.375796
 21
0.151487
 31
0.0
  0
LINE
  5
8B
  8
DAIKO
 10
1.375796
 20
0.151487
 30
0.0
 11
1.375796
 21
0.092148
 31
0.0
  0
LINE
  5
8C
  8
DAIKO
 10
1.318479
 20
0.137176
 30
0.0
 11
1.375796
 21
0.121818
 31
0.0
  0
LINE
  5
8D
  8
DAIKO
 10
0.344091
 20
0.398262
 30
0.0
 11
0.401408
 21
0.382905
 31
0.0
  0
LINE
  5
8E
  8
DAIKO
 10
0.401408
 20
0.4125740000000001
 30
0.0
 11
0.401408
 21
0.353235
 31
0.0
  0
LINE
  5
8F
  8
DAIKO
 10
0.344091
 20
0.368593
 30
0.0
 11
0.344091
 21
0.4279320000000001
 31
0.0
  0
LINE
  5
90
  8
DAIKO
 10
0.200798
 20
1.949773
 30
0.0
 11
1.519088999999999
 21
1.5965379999999989
 31
0.0
  0
LINE
  5
91
  8
DAIKO
 10
0.114823
 20
1.8838009999999989
 30
0.0
 11
0.114823
 21
0.4300250000000001
 31
0.0
  0
LINE
  5
92
  8
DAIKO
 10
1.7196990000000001
 20
0.0
 30
0.0
 11
0.000189
 21
0.460741
 31
0.0
  0
LINE
  5
93
  8
DAIKO
 10
0.000189
 20
2.1213820000000001
 30
0.0
 11
0.000189
 21
0.460741
 31
0.0
  0
LINE
  5
94
  8
DAIKO
 10
1.7196990000000001
 20
1.6606419999999991
 30
0.0
 11
1.7196990000000001
 21
0.0
 31
0.0
  0
LINE
  5
95
  8
DAIKO
 10
24.427019000000001
 20
6.0666060000000002
 30
0.0
 11
24.427019000000001
 21
7.0662969999999996
 31
0.0
  0
LINE
  5
96
  8
DAIKO
 10
27.292867999999999
 20
6.8345079999999996
 30
0.0
 11
24.427019000000001
 21
6.0666060000000002
 31
0.0
  0
LINE
  5
97
  8
DAIKO
 10
27.292867999999999
 20
7.8341989999999999
 30
0.0
 11
27.292867999999999
 21
6.8345079999999996
 31
0.0
  0
LINE
  5
98
  8
DAIKO
 10
24.427019000000001
 20
6.7513379999999996
 30
0.0
 11
5.3449970000000002
 21
1.6383259999999991
 31
0.0
  0
LINE
  5
99
  8
DAIKO
 10
24.427019000000001
 20
6.9686810000000001
 30
0.0
 11
5.3449970000000002
 21
1.8556680000000001
 31
0.0
  0
LINE
  5
9A
  8
DAIKO
 10
27.292867999999999
 20
6.852310000000001
 30
0.0
 11
46.374890000000001
 21
11.965323
 31
0.0
  0
LINE
  5
9B
  8
DAIKO
 10
27.292867999999999
 20
7.823307999999999
 30
0.0
 11
46.374890000000001
 21
12.936321
 31
0.0
  0
LINE
  5
9C
  8
DAIKO
 10
24.427019000000001
 20
7.0662969999999996
 30
0.0
 11
27.292867999999999
 21
7.8341989999999999
 31
0.0
  0
TEXT
  5
9D
  8
DAIKO
 10
0.0
 20
-10.0
 30
0.0
 40
3.0
  1
DSY-5270FW
  7
BIGFONT
  0
ENDSEC
  0
EOF
