  0
SECTION
  2
HEADER
  9
$ACADVER
  1
AC1009
  9
$INSBASE
 10
0.0
 20
0.0
 30
0.0
  9
$EXTMIN
 10
0.0
 20
-10.0
 30
0.0
  9
$EXTMAX
 10
50.000236000000001
 20
15.572891386297361
 30
0.0
  9
$LIMMIN
 10
0.0
 20
0.0
  9
$LIMMAX
 10
12.0
 20
9.0
  9
$ORTHOMODE
 70
     0
  9
$REGENMODE
 70
     1
  9
$FILLMODE
 70
     1
  9
$QTEXTMODE
 70
     0
  9
$MIRRTEXT
 70
     0
  9
$DRAGMODE
 70
     2
  9
$LTSCALE
 40
1.0
  9
$OSMODE
 70
    37
  9
$ATTMODE
 70
     1
  9
$TEXTSIZE
 40
0.0
  9
$TRACEWID
 40
0.05
  9
$TEXTSTYLE
  7
STANDARD
  9
$CLAYER
  8
0
  9
$CELTYPE
  6
CONTINUOUS
  9
$CECOLOR
 62
   256
  9
$DIMSCALE
 40
1.0
  9
$DIMASZ
 40
0.18
  9
$DIMEXO
 40
0.0625
  9
$DIMDLI
 40
0.38
  9
$DIMRND
 40
0.0
  9
$DIMDLE
 40
0.0
  9
$DIMEXE
 40
0.18
  9
$DIMTP
 40
0.0
  9
$DIMTM
 40
0.0
  9
$DIMTXT
 40
0.18
  9
$DIMCEN
 40
0.09
  9
$DIMTSZ
 40
0.0
  9
$DIMTOL
 70
     0
  9
$DIMLIM
 70
     0
  9
$DIMTIH
 70
     1
  9
$DIMTOH
 70
     1
  9
$DIMSE1
 70
     0
  9
$DIMSE2
 70
     0
  9
$DIMTAD
 70
     0
  9
$DIMZIN
 70
     0
  9
$DIMBLK
  1

  9
$DIMASO
 70
     1
  9
$DIMSHO
 70
     1
  9
$DIMPOST
  1

  9
$DIMAPOST
  1

  9
$DIMALT
 70
     0
  9
$DIMALTD
 70
     2
  9
$DIMALTF
 40
25.399999999999999
  9
$DIMLFAC
 40
1.0
  9
$DIMTOFL
 70
     0
  9
$DIMTVP
 40
0.0
  9
$DIMTIX
 70
     0
  9
$DIMSOXD
 70
     0
  9
$DIMSAH
 70
     0
  9
$DIMBLK1
  1

  9
$DIMBLK2
  1

  9
$DIMSTYLE
  2
STANDARD
  9
$DIMCLRD
 70
     0
  9
$DIMCLRE
 70
     0
  9
$DIMCLRT
 70
     0
  9
$DIMTFAC
 40
1.0
  9
$DIMGAP
 40
0.09
  9
$LUNITS
 70
     2
  9
$LUPREC
 70
     4
  9
$SKETCHINC
 40
0.1
  9
$FILLETRAD
 40
0.0
  9
$AUNITS
 70
     0
  9
$AUPREC
 70
     0
  9
$MENU
  1
.
  9
$ELEVATION
 40
0.0
  9
$PELEVATION
 40
0.0
  9
$THICKNESS
 40
0.0
  9
$LIMCHECK
 70
     0
  9
$BLIPMODE
 70
     0
  9
$CHAMFERA
 40
0.0
  9
$CHAMFERB
 40
0.0
  9
$SKPOLY
 70
     0
  9
$TDCREATE
 40
2458281.739169606
  9
$TDUPDATE
 40
2458281.761407488
  9
$TDINDWG
 40
0.0000376736
  9
$TDUSRTIMER
 40
0.0000376736
  9
$USRTIMER
 70
     1
  9
$ANGBASE
 50
0.0
  9
$ANGDIR
 70
     0
  9
$PDMODE
 70
     0
  9
$PDSIZE
 40
0.0
  9
$PLINEWID
 40
0.0
  9
$COORDS
 70
     1
  9
$SPLFRAME
 70
     0
  9
$SPLINETYPE
 70
     6
  9
$SPLINESEGS
 70
     8
  9
$ATTDIA
 70
     0
  9
$ATTREQ
 70
     1
  9
$HANDLING
 70
     1
  9
$HANDSEED
  5
B7
  9
$SURFTAB1
 70
     6
  9
$SURFTAB2
 70
     6
  9
$SURFTYPE
 70
     6
  9
$SURFU
 70
     6
  9
$SURFV
 70
     6
  9
$UCSNAME
  2

  9
$UCSORG
 10
0.0
 20
0.0
 30
0.0
  9
$UCSXDIR
 10
1.0
 20
0.0
 30
0.0
  9
$UCSYDIR
 10
0.0
 20
1.0
 30
0.0
  9
$PUCSNAME
  2

  9
$PUCSORG
 10
0.0
 20
0.0
 30
0.0
  9
$PUCSXDIR
 10
1.0
 20
0.0
 30
0.0
  9
$PUCSYDIR
 10
0.0
 20
1.0
 30
0.0
  9
$USERI1
 70
     0
  9
$USERI2
 70
     0
  9
$USERI3
 70
     0
  9
$USERI4
 70
     0
  9
$USERI5
 70
     0
  9
$USERR1
 40
0.0
  9
$USERR2
 40
0.0
  9
$USERR3
 40
0.0
  9
$USERR4
 40
0.0
  9
$USERR5
 40
0.0
  9
$WORLDVIEW
 70
     1
  9
$SHADEDGE
 70
     3
  9
$SHADEDIF
 70
    70
  9
$TILEMODE
 70
     1
  9
$MAXACTVP
 70
    64
  9
$PLIMCHECK
 70
     0
  9
$PEXTMIN
 10
1.0000000000000000E+020
 20
1.0000000000000000E+020
 30
1.0000000000000000E+020
  9
$PEXTMAX
 10
-1.0000000000000000E+020
 20
-1.0000000000000000E+020
 30
-1.0000000000000000E+020
  9
$PLIMMIN
 10
0.0
 20
0.0
  9
$PLIMMAX
 10
12.0
 20
9.0
  9
$UNITMODE
 70
     0
  9
$VISRETAIN
 70
     1
  9
$PLINEGEN
 70
     0
  9
$PSLTSCALE
 70
     1
  0
ENDSEC
  0
SECTION
  2
TABLES
  0
TABLE
  2
VPORT
 70
     2
  0
VPORT
  2
*ACTIVE
 70
     0
 10
0.0
 20
0.0
 11
1.0
 21
1.0
 12
25.000118116415859
 22
2.7899680508873059
 13
0.0
 23
0.0
 14
1.0
 24
1.0
 15
0.0
 25
0.0
 16
0.0
 26
0.0
 36
1.0
 17
0.0
 27
0.0
 37
0.0
 40
25.8128577669933
 41
2.05722891566265
 42
50.0
 43
0.0
 44
0.0
 50
0.0
 51
0.0
 71
     0
 72
   100
 73
     1
 74
     1
 75
     0
 76
     0
 77
     0
 78
     0
  0
ENDTAB
  0
TABLE
  2
LTYPE
 70
     8
  0
LTYPE
  2
CONTINUOUS
 70
     0
  3
Solid line
 72
    65
 73
     0
 40
0.0
  0
LTYPE
  2
CENTER_DASH_DASH
 70
     0
  3
Center_Dash_Dash
 72
    65
 73
     6
 40
22.0
 49
12.0
 49
-3.0
 49
0.5
 49
-3.0
 49
0.5
 49
-3.0
  0
LTYPE
  2
DASHED
 70
     0
  3
Dashed
 72
    65
 73
     2
 40
15.0
 49
12.0
 49
-3.0
  0
LTYPE
  2
DASH_CENTER
 70
     0
  3
Dash_Center
 72
    65
 73
     4
 40
36.0
 49
24.0
 49
-3.0
 49
6.0
 49
-3.0
  0
LTYPE
  2
DOTTED
 70
     0
  3
Dotted
 72
    65
 73
     2
 40
3.5
 49
0.5
 49
-3.0
  0
LTYPE
  2
DOT_CENTER
 70
     0
  3
Dot_Center
 72
    65
 73
     4
 40
2.0
 49
1.25
 49
-0.25
 49
0.25
 49
-0.25
  0
LTYPE
  2
LONG_DASHED
 70
     0
  3
Long_Dashed
 72
    65
 73
     2
 40
2.0
 49
1.5
 49
-0.5
  0
LTYPE
  2
PHANTOM
 70
     0
  3
Phantom
 72
    65
 73
     6
 40
2.5
 49
1.25
 49
-0.25
 49
0.25
 49
-0.25
 49
0.25
 49
-0.25
  0
ENDTAB
  0
TABLE
  2
LAYER
 70
     2
  0
LAYER
  2
0
 70
     0
 62
     7
  6
CONTINUOUS
  0
LAYER
  2
DAIKO
 70
     0
 62
     7
  6
CONTINUOUS
  0
ENDTAB
  0
TABLE
  2
STYLE
 70
     3
  0
STYLE
  2
STANDARD
 70
     0
 40
0.0
 41
1.0
 50
0.0
 71
     0
 42
0.0
  3
txt
  4

  0
STYLE
  2
BIGFONT
 70
     0
 40
1.0
 41
1.0
 50
0.0
 71
     0
 42
0.0
  3
txt
  4
bigfont
  0
STYLE
  2
CONVERTER_1
 70
     0
 40
0.0
 41
0.9
 50
0.0
 71
     0
 42
0.0
  3
txt.shx
  4

  0
ENDTAB
  0
TABLE
  2
VIEW
 70
     0
  0
ENDTAB
  0
TABLE
  2
UCS
 70
     0
  0
ENDTAB
  0
TABLE
  2
APPID
 70
     1
  0
APPID
  2
ACAD
 70
     0
  0
ENDTAB
  0
TABLE
  2
DIMSTYLE
 70
     1
  0
DIMSTYLE
  2
STANDARD
 70
     0
  3

  4

  5

  6

  7

 40
1.0
 41
0.18
 42
0.0625
 43
0.38
 44
0.18
 45
0.0
 46
0.0
 47
0.0
 48
0.0
140
0.18
141
0.09
142
0.0
143
25.399999999999999
144
1.0
145
0.0
146
1.0
147
0.09
 71
     0
 72
     0
 73
     1
 74
     1
 75
     0
 76
     0
 77
     0
 78
     0
170
     0
171
     2
172
     0
173
     0
174
     0
175
     0
176
     0
177
     0
178
     0
  0
ENDTAB
  0
ENDSEC
  0
SECTION
  2
BLOCKS
  0
BLOCK
  8
0
  2
$MODEL_SPACE
 70
     0
 10
0.0
 20
0.0
 30
0.0
  3
$MODEL_SPACE
  1

  0
ENDBLK
  5
24
  8
0
  0
BLOCK
 67
     1
  8
0
  2
$PAPER_SPACE
 70
     0
 10
0.0
 20
0.0
 30
0.0
  3
$PAPER_SPACE
  1

  0
ENDBLK
  5
20
 67
     1
  8
0
  0
ENDSEC
  0
SECTION
  2
ENTITIES
  0
ARC
  5
33
  8
DAIKO
 10
0.224499
 20
2.3625119999999988
 30
0.0
 40
0.081081
 50
70.781132999999997
 51
184.21886699999999
  0
ARC
  5
34
  8
DAIKO
 10
1.855105
 20
1.851162
 30
0.0
 40
0.152867
 50
2.1997619999999989
 51
72.800238000000007
  0
ARC
  5
35
  8
DAIKO
 10
2.000035
 20
2.0723729999999989
 30
0.0
 40
0.15131
 50
1.8976939999999991
 51
47.822032
  0
ARC
  5
36
  8
DAIKO
 10
0.165907
 20
-0.6137600000000001
 30
0.0
 40
3.4025430000000001
 50
55.326118999999998
 51
69.265695999999991
  0
ARC
  5
37
  8
DAIKO
 10
0.330703
 20
-0.139723
 30
0.0
 40
2.9008979999999989
 50
68.995046000000002
 51
85.392034999999993
  0
ARC
  5
38
  8
DAIKO
 10
0.376904
 20
0.485752
 30
0.0
 40
2.2737359999999991
 50
85.286279000000007
 51
98.053834000000009
  0
ARC
  5
39
  8
DAIKO
 10
0.8051729999999999
 20
0.5767790000000002
 30
0.0
 40
2.297477999999999
 50
88.410977000000003
 51
97.921307000000013
  0
ARC
  5
3A
  8
DAIKO
 10
0.778586
 20
0.046137
 30
0.0
 40
2.828678
 50
68.816822000000002
 51
88.170693999999983
  0
ARC
  5
3B
  8
DAIKO
 10
0.563124
 20
-0.5718090000000001
 30
0.0
 40
3.4827989999999991
 50
58.659846999999992
 51
69.185209
  0
ARC
  5
3C
  8
DAIKO
 10
0.4410040000000001
 20
-0.787928
 30
0.0
 40
3.730910999999999
 50
56.271301000000001
 51
58.784320999999991
  0
ARC
  5
3D
  8
DAIKO
 10
2.4276430000000002
 20
2.1866279999999989
 30
0.0
 40
0.153941
 50
2.2447680000000001
 51
56.489119999999993
  0
ARC
  5
3E
  8
DAIKO
 10
2.463022
 20
2.1959680000000001
 30
0.0
 40
0.154423
 50
2.3363659999999991
 51
56.397522000000002
  0
ARC
  5
3F
  8
DAIKO
 10
0.567522
 20
-0.6287050000000001
 30
0.0
 40
3.556141999999999
 50
56.147711999999999
 51
69.092268000000004
  0
ARC
  5
40
  8
DAIKO
 10
0.7789660000000001
 20
-0.079338
 30
0.0
 40
2.967490999999999
 50
69.120688000000001
 51
82.671296999999996
  0
ARC
  5
41
  8
DAIKO
 10
0.8391099999999999
 20
0.324276
 30
0.0
 40
2.5595150000000002
 50
82.854112999999984
 51
89.959423000000015
  0
ARC
  5
42
  8
DAIKO
 10
0.8321239999999999
 20
0.7076680000000001
 30
0.0
 40
2.176140999999999
 50
89.768356999999995
 51
98.129295999999997
  0
ARC
  5
43
  8
DAIKO
 10
0.5344120000000001
 20
2.8410919999999988
 30
0.0
 40
0.023129
 50
115.647485
 51
139.57966200000001
  0
ARC
  5
44
  8
DAIKO
 10
2.500909
 20
2.087502999999999
 30
0.0
 40
0.116493
 50
313.75095700000003
 51
2.185397
  0
ARC
  5
45
  8
DAIKO
 10
2.514613999999999
 20
1.8428319999999989
 30
0.0
 40
0.102789
 50
2.3344969999999998
 51
49.428764999999999
  0
ARC
  5
46
  8
DAIKO
 10
2.559960999999999
 20
1.36321
 30
0.0
 40
0.057414
 50
291.99747000000002
 51
2.5828919999999989
  0
ARC
  5
47
  8
DAIKO
 10
2.510600999999999
 20
0.928383
 30
0.0
 40
0.106812
 50
2.441463999999999
 51
48.436165000000003
  0
ARC
  5
48
  8
DAIKO
 10
49.474885999999991
 20
13.935568
 30
0.0
 40
0.059315
 50
310.21078199999999
 51
1.5107740000000001
  0
ARC
  5
49
  8
DAIKO
 10
49.479642999999989
 20
13.752311000000001
 30
0.0
 40
0.089792
 50
134.95171500000001
 51
225.04828499999999
  0
ARC
  5
4A
  8
DAIKO
 10
49.435580999999999
 20
13.50149
 30
0.0
 40
0.098639
 50
1.613645999999999
 51
38.121963999999998
  0
ARC
  5
4B
  8
DAIKO
 10
49.416665999999999
 20
14.777324
 30
0.0
 40
0.153477
 50
2.1960229999999989
 51
52.026124000000003
  0
ARC
  5
4C
  8
DAIKO
 10
49.847517000000003
 20
14.892775
 30
0.0
 40
0.152825
 50
2.1382310000000002
 51
47.581494999999997
  0
ARC
  5
4D
  8
DAIKO
 10
48.227981999999997
 20
13.234719
 30
0.0
 40
2.3454589999999991
 50
85.482268000000005
 51
97.857845000000012
  0
ARC
  5
4E
  8
DAIKO
 10
48.152084000000002
 20
12.531378999999999
 30
0.0
 40
3.052659999999999
 50
60.579526999999999
 51
85.101968000000014
  0
ARC
  5
4F
  8
DAIKO
 10
48.189360999999998
 20
12.489694999999999
 30
0.0
 40
3.0711129999999991
 50
55.006273999999991
 51
61.567347000000012
  0
ARC
  5
50
  8
DAIKO
 10
47.522404999999999
 20
11.965007
 30
0.0
 40
3.543892
 50
55.863824000000008
 51
66.524640000000005
  0
ARC
  5
51
  8
DAIKO
 10
47.687271000000003
 20
12.353804999999999
 30
0.0
 40
3.1216009999999992
 50
66.457464000000002
 51
77.432819999999992
  0
ARC
  5
52
  8
DAIKO
 10
47.775337999999991
 20
12.740330999999999
 30
0.0
 40
2.7251739999999991
 50
77.471842000000009
 51
85.639805999999993
  0
ARC
  5
53
  8
DAIKO
 10
47.797839000000003
 20
13.11735
 30
0.0
 40
2.3475450000000002
 50
85.487782999999993
 51
97.852329000000026
  0
ARC
  5
54
  8
DAIKO
 10
47.753329000000001
 20
13.240126
 30
0.0
 40
2.2152409999999989
 50
88.234018999999975
 51
98.098264999999984
  0
ARC
  5
55
  8
DAIKO
 10
47.73901
 20
12.704364999999999
 30
0.0
 40
2.7511890000000001
 50
74.836124999999996
 51
88.279802000000004
  0
ARC
  5
56
  8
DAIKO
 10
47.55899999999999
 20
12.082874
 30
0.0
 40
3.3981460000000001
 50
55.875269999999993
 51
74.647750000000016
  0
ARC
  5
57
  8
DAIKO
 10
49.381616999999999
 20
14.768276999999999
 30
0.0
 40
0.152657
 50
1.9974590000000001
 51
56.736429999999999
  0
ARC
  5
58
  8
DAIKO
 10
49.427301
 20
14.65455
 30
0.0
 40
0.106491
 50
286.02606299999991
 51
358.62498199999999
  0
ARC
  5
59
  8
DAIKO
 10
49.432344000000001
 20
14.414441999999999
 30
0.0
 40
0.101912
 50
2.1997619999999989
 51
72.800238000000007
  0
ARC
  5
5A
  8
DAIKO
 10
47.482950999999993
 20
15.420318
 30
0.0
 40
0.023306
 50
104.498778
 51
135.33141699999999
  0
ARC
  5
5B
  8
DAIKO
 10
0.080137
 20
2.659899999999999
 30
0.0
 40
0.080137
 50
103.65438399999999
 51
184.40172799999991
  0
LINE
  5
5C
  8
DAIKO
 10
25.179489
 20
7.3986910000000004
 30
0.0
 11
28.764530000000001
 21
8.3592999999999993
 31
0.0
  0
LINE
  5
5D
  8
DAIKO
 10
28.764530000000001
 20
8.3456770000000002
 30
0.0
 11
45.465158000000002
 21
12.820596
 31
0.0
  0
LINE
  5
5E
  8
DAIKO
 10
28.764530000000001
 20
7.131003999999999
 30
0.0
 11
45.465158000000002
 21
11.605923000000001
 31
0.0
  0
LINE
  5
5F
  8
DAIKO
 10
25.179489
 20
7.2765769999999996
 30
0.0
 11
6.6863399999999986
 21
2.321353999999999
 31
0.0
  0
LINE
  5
60
  8
DAIKO
 10
25.179489
 20
7.0046929999999987
 30
0.0
 11
6.6863399999999986
 21
2.0494689999999989
 31
0.0
  0
LINE
  5
61
  8
DAIKO
 10
28.764530000000001
 20
8.3592999999999993
 30
0.0
 11
28.764530000000001
 21
7.1087339999999992
 31
0.0
  0
LINE
  5
62
  8
DAIKO
 10
28.764530000000001
 20
7.1087339999999992
 30
0.0
 11
25.179489
 21
6.1481250000000003
 31
0.0
  0
LINE
  5
63
  8
DAIKO
 10
25.179489
 20
6.1481250000000003
 30
0.0
 11
25.179489
 21
7.3986910000000004
 31
0.0
  0
LINE
  5
64
  8
DAIKO
 10
2.151262
 20
2.077383999999999
 30
0.0
 11
2.151262
 21
0.0
 31
0.0
  0
LINE
  5
65
  8
DAIKO
 10
0.000236
 20
2.6537489999999999
 30
0.0
 11
0.000236
 21
0.576366
 31
0.0
  0
LINE
  5
66
  8
DAIKO
 10
2.151262
 20
0.0
 30
0.0
 11
0.000236
 21
0.576366
 31
0.0
  0
LINE
  5
67
  8
DAIKO
 10
0.143638
 20
2.3565469999999991
 30
0.0
 11
0.143638
 21
0.537941
 31
0.0
  0
LINE
  5
68
  8
DAIKO
 10
0.251189
 20
2.4390740000000002
 30
0.0
 11
1.9003080000000001
 21
1.9971939999999999
 31
0.0
  0
LINE
  5
69
  8
DAIKO
 10
0.4304420000000001
 20
0.4610920000000001
 30
0.0
 11
0.4304420000000001
 21
0.535323
 31
0.0
  0
LINE
  5
6A
  8
DAIKO
 10
0.502142
 20
0.5161100000000002
 30
0.0
 11
0.502142
 21
0.44188
 31
0.0
  0
LINE
  5
6B
  8
DAIKO
 10
0.4304420000000001
 20
0.498207
 30
0.0
 11
0.502142
 21
0.478996
 31
0.0
  0
LINE
  5
6C
  8
DAIKO
 10
1.649356
 20
0.171601
 30
0.0
 11
1.7210570000000001
 21
0.152388
 31
0.0
  0
LINE
  5
6D
  8
DAIKO
 10
1.7210570000000001
 20
0.189503
 30
0.0
 11
1.7210570000000001
 21
0.115273
 31
0.0
  0
LINE
  5
6E
  8
DAIKO
 10
1.649356
 20
0.208715
 30
0.0
 11
1.7210570000000001
 21
0.189503
 31
0.0
  0
LINE
  5
6F
  8
DAIKO
 10
1.649356
 20
0.134485
 30
0.0
 11
1.649356
 21
0.208715
 31
0.0
  0
LINE
  5
70
  8
DAIKO
 10
50.000236000000001
 20
14.898478000000001
 30
0.0
 11
50.000236000000001
 21
12.821092999999999
 31
0.0
  0
LINE
  5
71
  8
DAIKO
 10
2.5814659999999989
 20
2.1926570000000001
 30
0.0
 11
2.5814659999999989
 21
0.115273
 31
0.0
  0
LINE
  5
72
  8
DAIKO
 10
2.151262
 20
2.152674999999999
 30
0.0
 11
2.5238580000000002
 21
2.252511999999999
 31
0.0
  0
LINE
  5
73
  8
DAIKO
 10
0.4885520000000001
 20
2.8523350000000001
 30
0.0
 11
0.058346
 21
2.737061999999999
 31
0.0
  0
LINE
  5
74
  8
DAIKO
 10
0.4304420000000001
 20
0.535323
 30
0.0
 11
0.502142
 21
0.5161100000000002
 31
0.0
  0
LINE
  5
75
  8
DAIKO
 10
49.570031
 20
14.783204
 30
0.0
 11
49.570031
 21
12.705819999999999
 31
0.0
  0
LINE
  5
76
  8
DAIKO
 10
47.477114999999998
 20
15.442882000000001
 30
0.0
 11
47.907321000000003
 21
15.558154999999999
 31
0.0
  0
LINE
  5
77
  8
DAIKO
 10
49.570031
 20
14.858495
 30
0.0
 11
49.945890000000013
 21
14.959206
 31
0.0
  0
LINE
  5
78
  8
DAIKO
 10
49.570031
 20
12.705819999999999
 30
0.0
 11
50.000236000000001
 21
12.821092999999999
 31
0.0
  0
LINE
  5
79
  8
DAIKO
 10
49.394364000000003
 20
14.530048000000001
 30
0.0
 11
49.462479999999999
 21
14.511796
 31
0.0
  0
LINE
  5
7A
  8
DAIKO
 10
49.416204
 20
13.688765999999999
 30
0.0
 11
49.513179999999998
 21
13.562384
 31
0.0
  0
LINE
  5
7B
  8
DAIKO
 10
49.513179999999998
 20
13.890269999999999
 30
0.0
 11
49.416204
 21
13.815856999999999
 31
0.0
  0
LINE
  5
7C
  8
DAIKO
 10
49.534180999999997
 20
14.418354000000001
 30
0.0
 11
49.534180999999997
 21
13.937132
 31
0.0
  0
LINE
  5
7D
  8
DAIKO
 10
49.534180999999997
 20
13.504268
 30
0.0
 11
49.534180999999997
 21
12.696213999999999
 31
0.0
  0
LINE
  5
7E
  8
DAIKO
 10
2.617316999999999
 20
2.2022629999999999
 30
0.0
 11
2.617316999999999
 21
2.0919449999999991
 31
0.0
  0
LINE
  5
7F
  8
DAIKO
 10
2.151262
 20
0.0
 30
0.0
 11
2.5814659999999989
 21
0.115273
 31
0.0
  0
LINE
  5
80
  8
DAIKO
 10
2.617316999999999
 20
0.932933
 30
0.0
 11
2.617316999999999
 21
0.124879
 31
0.0
  0
LINE
  5
81
  8
DAIKO
 10
2.617316999999999
 20
1.365796999999999
 30
0.0
 11
2.617316999999999
 21
1.8470189999999991
 31
0.0
  0
LINE
  5
82
  8
DAIKO
 10
49.491196000000002
 20
13.518995
 30
0.0
 11
49.050199999999997
 21
13.400829999999999
 31
0.0
  0
LINE
  5
83
  8
DAIKO
 10
2.6481150000000002
 20
1.347804999999999
 30
0.0
 11
3.101297999999999
 21
1.4692350000000001
 31
0.0
  0
LINE
  5
84
  8
DAIKO
 10
49.364001000000002
 20
13.756798
 30
0.0
 11
49.050199999999997
 21
13.672715
 31
0.0
  0
LINE
  5
85
  8
DAIKO
 10
3.101297999999999
 20
1.3607439999999991
 30
0.0
 11
2.5814659999999989
 21
1.221455999999999
 31
0.0
  0
LINE
  5
86
  8
DAIKO
 10
3.101297999999999
 20
1.0888599999999991
 30
0.0
 11
2.6481150000000002
 21
0.9674299999999998
 31
0.0
  0
LINE
  5
87
  8
DAIKO
 10
3.101297999999999
 20
0.2322929999999999
 30
0.0
 11
3.101297999999999
 21
1.482858999999999
 31
0.0
  0
LINE
  5
88
  8
DAIKO
 10
3.101297999999999
 20
1.482858999999999
 30
0.0
 11
6.6863399999999986
 21
2.4434680000000002
 31
0.0
  0
LINE
  5
89
  8
DAIKO
 10
6.6863399999999986
 20
2.4434680000000002
 30
0.0
 11
6.6863399999999986
 21
1.1929019999999999
 31
0.0
  0
LINE
  5
8A
  8
DAIKO
 10
6.6863399999999986
 20
1.1929019999999999
 30
0.0
 11
3.101297999999999
 21
0.2322929999999999
 31
0.0
  0
LINE
  5
8B
  8
DAIKO
 10
2.617316999999999
 20
0.124879
 30
0.0
 11
3.101297999999999
 21
0.254562
 31
0.0
  0
LINE
  5
8C
  8
DAIKO
 10
49.050199999999997
 20
13.781205
 30
0.0
 11
49.464854000000003
 21
13.892312
 31
0.0
  0
LINE
  5
8D
  8
DAIKO
 10
49.050199999999997
 20
13.794829999999999
 30
0.0
 11
49.050199999999997
 21
12.544263000000001
 31
0.0
  0
LINE
  5
8E
  8
DAIKO
 10
49.050199999999997
 20
12.544263000000001
 30
0.0
 11
45.465158000000002
 21
11.583653999999999
 31
0.0
  0
LINE
  5
8F
  8
DAIKO
 10
45.465158000000002
 20
11.583653999999999
 30
0.0
 11
45.465158000000002
 21
12.83422
 31
0.0
  0
LINE
  5
90
  8
DAIKO
 10
45.465158000000002
 20
12.83422
 30
0.0
 11
49.050199999999997
 21
13.794829999999999
 31
0.0
  0
LINE
  5
91
  8
DAIKO
 10
49.534180999999997
 20
12.696213999999999
 30
0.0
 11
49.050199999999997
 21
12.566530999999999
 31
0.0
  0
LINE
  5
92
  8
DAIKO
 10
2.617316999999999
 20
0.124879
 30
0.0
 11
2.5814659999999989
 21
0.134485
 31
0.0
  0
LINE
  5
93
  8
DAIKO
 10
49.570031
 20
12.705819999999999
 30
0.0
 11
49.534180999999997
 21
12.715427
 31
0.0
  0
LINE
  5
94
  8
DAIKO
 10
49.53376200000001
 20
14.651994
 30
0.0
 11
49.534180999999997
 21
14.773599000000001
 31
0.0
  0
LINE
  5
95
  8
DAIKO
 10
2.0078599999999991
 20
1.8570299999999991
 30
0.0
 11
2.0078599999999991
 21
0.038424
 31
0.0
  0
LINE
  5
96
  8
DAIKO
 10
6.6863399999999986
 20
1.215171
 30
0.0
 11
25.179489
 21
6.1703950000000001
 31
0.0
  0
LINE
  5
97
  8
DAIKO
 10
45.465158000000002
 20
12.440220999999999
 30
0.0
 11
28.764530000000001
 21
7.9653020000000003
 31
0.0
  0
LINE
  5
98
  8
DAIKO
 10
45.465158000000002
 20
12.712106
 30
0.0
 11
28.764530000000001
 21
8.2371859999999995
 31
0.0
  0
LINE
  5
99
  8
DAIKO
 10
6.6863399999999986
 20
2.4298439999999988
 30
0.0
 11
25.179489
 21
7.3850679999999986
 31
0.0
  0
LINE
  5
9A
  8
DAIKO
 10
49.390779000000002
 20
14.810464
 30
0.0
 11
2.6487370000000001
 21
2.2859729999999989
 31
0.0
  0
LINE
  5
9B
  8
DAIKO
 10
49.379531
 20
14.530284
 30
0.0
 11
2.5814659999999989
 21
1.9907809999999999
 31
0.0
  0
LINE
  5
9C
  8
DAIKO
 10
47.441265000000001
 20
15.433275999999999
 30
0.0
 11
0.5244020000000002
 21
2.861940999999999
 31
0.0
  0
TEXT
  5
9D
  8
DAIKO
 10
0.0
 20
-10.0
 30
0.0
 40
3.0
  1
DSY-5269FW
  7
BIGFONT
  0
ENDSEC
  0
EOF
