  0
SECTION
  2
HEADER
  9
$ACADVER
  1
AC1009
  9
$INSBASE
 10
0.0
 20
0.0
 30
0.0
  9
$EXTMIN
 10
0.0
 20
-10.0
 30
0.0
  9
$EXTMAX
 10
50.000314062595002
 20
16.278788139646021
 30
0.0
  9
$LIMMIN
 10
0.0
 20
0.0
  9
$LIMMAX
 10
12.0
 20
9.0
  9
$ORTHOMODE
 70
     0
  9
$REGENMODE
 70
     1
  9
$FILLMODE
 70
     1
  9
$QTEXTMODE
 70
     0
  9
$MIRRTEXT
 70
     0
  9
$DRAGMODE
 70
     2
  9
$LTSCALE
 40
1.0
  9
$OSMODE
 70
    37
  9
$ATTMODE
 70
     1
  9
$TEXTSIZE
 40
0.0
  9
$TRACEWID
 40
0.05
  9
$TEXTSTYLE
  7
STANDARD
  9
$CLAYER
  8
0
  9
$CELTYPE
  6
CONTINUOUS
  9
$CECOLOR
 62
   256
  9
$DIMSCALE
 40
1.0
  9
$DIMASZ
 40
0.18
  9
$DIMEXO
 40
0.0625
  9
$DIMDLI
 40
0.38
  9
$DIMRND
 40
0.0
  9
$DIMDLE
 40
0.0
  9
$DIMEXE
 40
0.18
  9
$DIMTP
 40
0.0
  9
$DIMTM
 40
0.0
  9
$DIMTXT
 40
0.18
  9
$DIMCEN
 40
0.09
  9
$DIMTSZ
 40
0.0
  9
$DIMTOL
 70
     0
  9
$DIMLIM
 70
     0
  9
$DIMTIH
 70
     1
  9
$DIMTOH
 70
     1
  9
$DIMSE1
 70
     0
  9
$DIMSE2
 70
     0
  9
$DIMTAD
 70
     0
  9
$DIMZIN
 70
     0
  9
$DIMBLK
  1

  9
$DIMASO
 70
     1
  9
$DIMSHO
 70
     1
  9
$DIMPOST
  1

  9
$DIMAPOST
  1

  9
$DIMALT
 70
     0
  9
$DIMALTD
 70
     2
  9
$DIMALTF
 40
25.399999999999999
  9
$DIMLFAC
 40
1.0
  9
$DIMTOFL
 70
     0
  9
$DIMTVP
 40
0.0
  9
$DIMTIX
 70
     0
  9
$DIMSOXD
 70
     0
  9
$DIMSAH
 70
     0
  9
$DIMBLK1
  1

  9
$DIMBLK2
  1

  9
$DIMSTYLE
  2
STANDARD
  9
$DIMCLRD
 70
     0
  9
$DIMCLRE
 70
     0
  9
$DIMCLRT
 70
     0
  9
$DIMTFAC
 40
1.0
  9
$DIMGAP
 40
0.09
  9
$LUNITS
 70
     2
  9
$LUPREC
 70
     4
  9
$SKETCHINC
 40
0.1
  9
$FILLETRAD
 40
0.0
  9
$AUNITS
 70
     0
  9
$AUPREC
 70
     0
  9
$MENU
  1
.
  9
$ELEVATION
 40
0.0
  9
$PELEVATION
 40
0.0
  9
$THICKNESS
 40
0.0
  9
$LIMCHECK
 70
     0
  9
$BLIPMODE
 70
     0
  9
$CHAMFERA
 40
0.0
  9
$CHAMFERB
 40
0.0
  9
$SKPOLY
 70
     0
  9
$TDCREATE
 40
2458281.739093692
  9
$TDUPDATE
 40
2458281.7613480329
  9
$TDINDWG
 40
0.0000384838
  9
$TDUSRTIMER
 40
0.0000384838
  9
$USRTIMER
 70
     1
  9
$ANGBASE
 50
0.0
  9
$ANGDIR
 70
     0
  9
$PDMODE
 70
     0
  9
$PDSIZE
 40
0.0
  9
$PLINEWID
 40
0.0
  9
$COORDS
 70
     1
  9
$SPLFRAME
 70
     0
  9
$SPLINETYPE
 70
     6
  9
$SPLINESEGS
 70
     8
  9
$ATTDIA
 70
     0
  9
$ATTREQ
 70
     1
  9
$HANDLING
 70
     1
  9
$HANDSEED
  5
AF
  9
$SURFTAB1
 70
     6
  9
$SURFTAB2
 70
     6
  9
$SURFTYPE
 70
     6
  9
$SURFU
 70
     6
  9
$SURFV
 70
     6
  9
$UCSNAME
  2

  9
$UCSORG
 10
0.0
 20
0.0
 30
0.0
  9
$UCSXDIR
 10
1.0
 20
0.0
 30
0.0
  9
$UCSYDIR
 10
0.0
 20
1.0
 30
0.0
  9
$PUCSNAME
  2

  9
$PUCSORG
 10
0.0
 20
0.0
 30
0.0
  9
$PUCSXDIR
 10
1.0
 20
0.0
 30
0.0
  9
$PUCSYDIR
 10
0.0
 20
1.0
 30
0.0
  9
$USERI1
 70
     0
  9
$USERI2
 70
     0
  9
$USERI3
 70
     0
  9
$USERI4
 70
     0
  9
$USERI5
 70
     0
  9
$USERR1
 40
0.0
  9
$USERR2
 40
0.0
  9
$USERR3
 40
0.0
  9
$USERR4
 40
0.0
  9
$USERR5
 40
0.0
  9
$WORLDVIEW
 70
     1
  9
$SHADEDGE
 70
     3
  9
$SHADEDIF
 70
    70
  9
$TILEMODE
 70
     1
  9
$MAXACTVP
 70
    64
  9
$PLIMCHECK
 70
     0
  9
$PEXTMIN
 10
1.0000000000000000E+020
 20
1.0000000000000000E+020
 30
1.0000000000000000E+020
  9
$PEXTMAX
 10
-1.0000000000000000E+020
 20
-1.0000000000000000E+020
 30
-1.0000000000000000E+020
  9
$PLIMMIN
 10
0.0
 20
0.0
  9
$PLIMMAX
 10
12.0
 20
9.0
  9
$UNITMODE
 70
     0
  9
$VISRETAIN
 70
     1
  9
$PLINEGEN
 70
     0
  9
$PSLTSCALE
 70
     1
  0
ENDSEC
  0
SECTION
  2
TABLES
  0
TABLE
  2
VPORT
 70
     2
  0
VPORT
  2
*ACTIVE
 70
     0
 10
0.0
 20
0.0
 11
1.0
 21
1.0
 12
25.00015661641606
 22
3.142845352507444
 13
0.0
 23
0.0
 14
1.0
 24
1.0
 15
0.0
 25
0.0
 16
0.0
 26
0.0
 36
1.0
 17
0.0
 27
0.0
 37
0.0
 40
26.525882288566411
 41
2.05722891566265
 42
50.0
 43
0.0
 44
0.0
 50
0.0
 51
0.0
 71
     0
 72
   100
 73
     1
 74
     1
 75
     0
 76
     0
 77
     0
 78
     0
  0
ENDTAB
  0
TABLE
  2
LTYPE
 70
     8
  0
LTYPE
  2
CONTINUOUS
 70
     0
  3
Solid line
 72
    65
 73
     0
 40
0.0
  0
LTYPE
  2
CENTER_DASH_DASH
 70
     0
  3
Center_Dash_Dash
 72
    65
 73
     6
 40
22.0
 49
12.0
 49
-3.0
 49
0.5
 49
-3.0
 49
0.5
 49
-3.0
  0
LTYPE
  2
DASHED
 70
     0
  3
Dashed
 72
    65
 73
     2
 40
15.0
 49
12.0
 49
-3.0
  0
LTYPE
  2
DASH_CENTER
 70
     0
  3
Dash_Center
 72
    65
 73
     4
 40
36.0
 49
24.0
 49
-3.0
 49
6.0
 49
-3.0
  0
LTYPE
  2
DOTTED
 70
     0
  3
Dotted
 72
    65
 73
     2
 40
3.5
 49
0.5
 49
-3.0
  0
LTYPE
  2
DOT_CENTER
 70
     0
  3
Dot_Center
 72
    65
 73
     4
 40
2.0
 49
1.25
 49
-0.25
 49
0.25
 49
-0.25
  0
LTYPE
  2
LONG_DASHED
 70
     0
  3
Long_Dashed
 72
    65
 73
     2
 40
2.0
 49
1.5
 49
-0.5
  0
LTYPE
  2
PHANTOM
 70
     0
  3
Phantom
 72
    65
 73
     6
 40
2.5
 49
1.25
 49
-0.25
 49
0.25
 49
-0.25
 49
0.25
 49
-0.25
  0
ENDTAB
  0
TABLE
  2
LAYER
 70
     2
  0
LAYER
  2
0
 70
     0
 62
     7
  6
CONTINUOUS
  0
LAYER
  2
DAIKO
 70
     0
 62
     7
  6
CONTINUOUS
  0
ENDTAB
  0
TABLE
  2
STYLE
 70
     3
  0
STYLE
  2
STANDARD
 70
     0
 40
0.0
 41
1.0
 50
0.0
 71
     0
 42
0.0
  3
txt
  4

  0
STYLE
  2
BIGFONT
 70
     0
 40
1.0
 41
1.0
 50
0.0
 71
     0
 42
0.0
  3
txt
  4
bigfont
  0
STYLE
  2
CONVERTER_1
 70
     0
 40
0.0
 41
0.9
 50
0.0
 71
     0
 42
0.0
  3
txt.shx
  4

  0
ENDTAB
  0
TABLE
  2
VIEW
 70
     0
  0
ENDTAB
  0
TABLE
  2
UCS
 70
     0
  0
ENDTAB
  0
TABLE
  2
APPID
 70
     1
  0
APPID
  2
ACAD
 70
     0
  0
ENDTAB
  0
TABLE
  2
DIMSTYLE
 70
     1
  0
DIMSTYLE
  2
STANDARD
 70
     0
  3

  4

  5

  6

  7

 40
1.0
 41
0.18
 42
0.0625
 43
0.38
 44
0.18
 45
0.0
 46
0.0
 47
0.0
 48
0.0
140
0.18
141
0.09
142
0.0
143
25.399999999999999
144
1.0
145
0.0
146
1.0
147
0.09
 71
     0
 72
     0
 73
     1
 74
     1
 75
     0
 76
     0
 77
     0
 78
     0
170
     0
171
     2
172
     0
173
     0
174
     0
175
     0
176
     0
177
     0
178
     0
  0
ENDTAB
  0
ENDSEC
  0
SECTION
  2
BLOCKS
  0
BLOCK
  8
0
  2
$MODEL_SPACE
 70
     0
 10
0.0
 20
0.0
 30
0.0
  3
$MODEL_SPACE
  1

  0
ENDBLK
  5
24
  8
0
  0
BLOCK
 67
     1
  8
0
  2
$PAPER_SPACE
 70
     0
 10
0.0
 20
0.0
 30
0.0
  3
$PAPER_SPACE
  1

  0
ENDBLK
  5
20
 67
     1
  8
0
  0
ENDSEC
  0
SECTION
  2
ENTITIES
  0
ARC
  5
33
  8
DAIKO
 10
0.297346
 20
3.1291129999999998
 30
0.0
 40
0.10739
 50
70.781132999999997
 51
184.21886699999999
  0
ARC
  5
34
  8
DAIKO
 10
2.4570609999999991
 20
2.4518379999999991
 30
0.0
 40
0.20247
 50
2.1997619999999989
 51
72.800238000000007
  0
ARC
  5
35
  8
DAIKO
 10
2.649019
 20
2.744829999999999
 30
0.0
 40
0.200407
 50
1.8976939999999991
 51
47.822032
  0
ARC
  5
36
  8
DAIKO
 10
0.219741
 20
-0.8129159999999998
 30
0.0
 40
4.506619999999999
 50
55.326118999999998
 51
69.265695999999991
  0
ARC
  5
37
  8
DAIKO
 10
0.438012
 20
-0.185062
 30
0.0
 40
3.8421979999999998
 50
68.995046000000002
 51
85.392034999999993
  0
ARC
  5
38
  8
DAIKO
 10
0.499205
 20
0.6433720000000001
 30
0.0
 40
3.011531999999999
 50
85.286279000000007
 51
98.053834000000009
  0
ARC
  5
39
  8
DAIKO
 10
0.10614
 20
3.5230000000000001
 30
0.0
 40
0.10614
 50
103.65438399999999
 51
184.40172799999991
  0
ARC
  5
3A
  8
DAIKO
 10
1.0664409999999991
 20
0.763936
 30
0.0
 40
3.0429779999999989
 50
88.410977000000003
 51
97.921307000000013
  0
ARC
  5
3B
  8
DAIKO
 10
1.0312259999999991
 20
0.061108
 30
0.0
 40
3.7465440000000001
 50
68.816822000000002
 51
88.170693999999983
  0
ARC
  5
3C
  8
DAIKO
 10
0.74585
 20
-0.757354
 30
0.0
 40
4.6129189999999998
 50
58.659846999999992
 51
69.185209
  0
ARC
  5
3D
  8
DAIKO
 10
0.584104
 20
-1.043601
 30
0.0
 40
4.9415399999999989
 50
56.271301000000001
 51
58.784320999999991
  0
ARC
  5
3E
  8
DAIKO
 10
3.2153800000000001
 20
2.8961579999999998
 30
0.0
 40
0.203893
 50
2.2447680000000001
 51
56.489119999999993
  0
ARC
  5
3F
  8
DAIKO
 10
3.2622390000000001
 20
2.9085290000000001
 30
0.0
 40
0.204531
 50
2.3363659999999991
 51
56.397522000000002
  0
ARC
  5
40
  8
DAIKO
 10
0.751675
 20
-0.8327110000000001
 30
0.0
 40
4.7100599999999986
 50
56.147711999999999
 51
69.092268000000004
  0
ARC
  5
41
  8
DAIKO
 10
1.0317289999999999
 20
-0.105082
 30
0.0
 40
3.9303989999999991
 50
69.120688000000001
 51
82.671296999999996
  0
ARC
  5
42
  8
DAIKO
 10
1.1113889999999991
 20
0.429499
 30
0.0
 40
3.3900419999999989
 50
82.854112999999984
 51
89.959423000000015
  0
ARC
  5
43
  8
DAIKO
 10
1.1021369999999999
 20
0.9372959999999999
 30
0.0
 40
2.8822669999999988
 50
89.768356999999995
 51
98.129295999999997
  0
ARC
  5
44
  8
DAIKO
 10
0.7078220000000001
 20
3.7629860000000002
 30
0.0
 40
0.030633
 50
115.647485
 51
139.57966200000001
  0
ARC
  5
45
  8
DAIKO
 10
3.3124189999999998
 20
2.764867999999999
 30
0.0
 40
0.154294
 50
313.75095700000003
 51
2.185397
  0
ARC
  5
46
  8
DAIKO
 10
3.3305709999999991
 20
2.4408059999999998
 30
0.0
 40
0.136142
 50
2.3344969999999998
 51
49.428764999999999
  0
ARC
  5
47
  8
DAIKO
 10
3.3906329999999998
 20
1.805552
 30
0.0
 40
0.076044
 50
291.99747000000002
 51
2.5828919999999989
  0
ARC
  5
48
  8
DAIKO
 10
3.3252559999999991
 20
1.22963
 30
0.0
 40
0.141472
 50
2.441463999999999
 51
48.436165000000003
  0
ARC
  5
49
  8
DAIKO
 10
49.304493999999998
 20
14.110175999999999
 30
0.0
 40
0.078562
 50
310.21078199999999
 51
1.5107740000000001
  0
ARC
  5
4A
  8
DAIKO
 10
49.310794000000001
 20
13.867456000000001
 30
0.0
 40
0.118928
 50
134.95171500000001
 51
225.04828499999999
  0
ARC
  5
4B
  8
DAIKO
 10
49.252435999999989
 20
13.535246000000001
 30
0.0
 40
0.130646
 50
1.613645999999999
 51
38.121963999999998
  0
ARC
  5
4C
  8
DAIKO
 10
49.227384000000001
 20
15.225069
 30
0.0
 40
0.203278
 50
2.1960229999999989
 51
52.026124000000003
  0
ARC
  5
4D
  8
DAIKO
 10
49.79804
 20
15.377984
 30
0.0
 40
0.202415
 50
2.1382310000000002
 51
47.581494999999997
  0
ARC
  5
4E
  8
DAIKO
 10
47.652988000000001
 20
13.181910999999999
 30
0.0
 40
3.1065290000000001
 50
85.482268000000005
 51
97.857845000000012
  0
ARC
  5
4F
  8
DAIKO
 10
47.552461999999998
 20
12.250347
 30
0.0
 40
4.0432059999999987
 50
60.579526999999999
 51
85.101968000000014
  0
ARC
  5
50
  8
DAIKO
 10
47.601834999999987
 20
12.195138
 30
0.0
 40
4.067645999999999
 50
55.006273999999991
 51
61.567347000000012
  0
ARC
  5
51
  8
DAIKO
 10
46.718460999999991
 20
11.500195
 30
0.0
 40
4.6938349999999991
 50
55.863824000000008
 51
66.524640000000005
  0
ARC
  5
52
  8
DAIKO
 10
46.93682299999999
 20
12.015154000000001
 30
0.0
 40
4.1345159999999996
 50
66.457464000000002
 51
77.432819999999992
  0
ARC
  5
53
  8
DAIKO
 10
47.053466999999991
 20
12.527101
 30
0.0
 40
3.6094550000000001
 50
77.471842000000009
 51
85.639805999999993
  0
ARC
  5
54
  8
DAIKO
 10
47.083267999999997
 20
13.026457000000001
 30
0.0
 40
3.1092900000000001
 50
85.487782999999993
 51
97.852329000000026
  0
ARC
  5
55
  8
DAIKO
 10
47.024315999999992
 20
13.189071999999999
 30
0.0
 40
2.9340559999999991
 50
88.234018999999975
 51
98.098264999999984
  0
ARC
  5
56
  8
DAIKO
 10
47.00535099999999
 20
12.479464999999999
 30
0.0
 40
3.6439119999999998
 50
74.836124999999996
 51
88.279802000000004
  0
ARC
  5
57
  8
DAIKO
 10
46.766930000000002
 20
11.656309
 30
0.0
 40
4.5007970000000004
 50
55.875269999999993
 51
74.647750000000016
  0
ARC
  5
58
  8
DAIKO
 10
49.180960999999989
 20
15.213088000000001
 30
0.0
 40
0.202191
 50
1.9974590000000001
 51
56.736429999999999
  0
ARC
  5
59
  8
DAIKO
 10
49.241469000000002
 20
15.062457
 30
0.0
 40
0.141046
 50
286.02606299999991
 51
358.62498199999999
  0
ARC
  5
5A
  8
DAIKO
 10
49.248148999999998
 20
14.744438000000001
 30
0.0
 40
0.13498
 50
2.1997619999999989
 51
72.800238000000007
  0
ARC
  5
5B
  8
DAIKO
 10
46.666204
 20
16.076706999999999
 30
0.0
 40
0.030869
 50
104.498778
 51
135.33141699999999
  0
LINE
  5
5C
  8
DAIKO
 10
2.8493159999999991
 20
2.7514660000000002
 30
0.0
 11
2.8493159999999991
 21
0.0
 31
0.0
  0
LINE
  5
5D
  8
DAIKO
 10
0.000313
 20
3.5148540000000001
 30
0.0
 11
0.000313
 21
0.763388
 31
0.0
  0
LINE
  5
5E
  8
DAIKO
 10
2.8493159999999991
 20
0.0
 30
0.0
 11
0.000313
 21
0.763388
 31
0.0
  0
LINE
  5
5F
  8
DAIKO
 10
0.190247
 20
3.121213
 30
0.0
 11
0.190247
 21
0.712496
 31
0.0
  0
LINE
  5
60
  8
DAIKO
 10
0.332696
 20
3.2305189999999988
 30
0.0
 11
2.5169320000000002
 21
2.6452550000000001
 31
0.0
  0
LINE
  5
61
  8
DAIKO
 10
2.6593830000000001
 20
2.4596100000000001
 30
0.0
 11
2.6593830000000001
 21
0.050893
 31
0.0
  0
LINE
  5
62
  8
DAIKO
 10
0.570113
 20
0.6107110000000001
 30
0.0
 11
0.570113
 21
0.7090270000000001
 31
0.0
  0
LINE
  5
63
  8
DAIKO
 10
0.6650800000000001
 20
0.6835810000000001
 30
0.0
 11
0.6650800000000001
 21
0.585264
 31
0.0
  0
LINE
  5
64
  8
DAIKO
 10
0.570113
 20
0.659869
 30
0.0
 11
0.6650800000000001
 21
0.634422
 31
0.0
  0
LINE
  5
65
  8
DAIKO
 10
2.1845490000000001
 20
0.227282
 30
0.0
 11
2.2795149999999991
 21
0.201836
 31
0.0
  0
LINE
  5
66
  8
DAIKO
 10
2.2795149999999991
 20
0.250995
 30
0.0
 11
2.2795149999999991
 21
0.152678
 31
0.0
  0
LINE
  5
67
  8
DAIKO
 10
2.1845490000000001
 20
0.27644
 30
0.0
 11
2.2795149999999991
 21
0.250995
 31
0.0
  0
LINE
  5
68
  8
DAIKO
 10
2.1845490000000001
 20
0.178124
 30
0.0
 11
2.1845490000000001
 21
0.27644
 31
0.0
  0
LINE
  5
69
  8
DAIKO
 10
50.000312999999991
 20
15.385536
 30
0.0
 11
50.000312999999991
 21
12.634069
 31
0.0
  0
LINE
  5
6A
  8
DAIKO
 10
3.4191159999999998
 20
2.9041440000000001
 30
0.0
 11
3.4191159999999998
 21
0.152678
 31
0.0
  0
LINE
  5
6B
  8
DAIKO
 10
2.8493159999999991
 20
2.8511880000000001
 30
0.0
 11
3.3428139999999988
 21
2.9834200000000002
 31
0.0
  0
LINE
  5
6C
  8
DAIKO
 10
0.647079
 20
3.777877999999999
 30
0.0
 11
0.077279
 21
3.6251999999999991
 31
0.0
  0
LINE
  5
6D
  8
DAIKO
 10
0.570113
 20
0.7090270000000001
 30
0.0
 11
0.6650800000000001
 21
0.6835810000000001
 31
0.0
  0
LINE
  5
6E
  8
DAIKO
 10
49.430512999999998
 20
15.232858999999999
 30
0.0
 11
49.430512999999998
 21
12.481392
 31
0.0
  0
LINE
  5
6F
  8
DAIKO
 10
46.658475000000003
 20
16.106591999999999
 30
0.0
 11
47.228276000000001
 21
16.259270000000001
 31
0.0
  0
LINE
  5
70
  8
DAIKO
 10
49.430512999999998
 20
15.33258
 30
0.0
 11
49.92833199999999
 21
15.46597
 31
0.0
  0
LINE
  5
71
  8
DAIKO
 10
49.430512999999998
 20
12.481392
 30
0.0
 11
50.000312999999991
 21
12.634069
 31
0.0
  0
LINE
  5
72
  8
DAIKO
 10
49.197844000000011
 20
14.897556
 30
0.0
 11
49.288061999999996
 21
14.873381999999999
 31
0.0
  0
LINE
  5
73
  8
DAIKO
 10
49.226770999999999
 20
13.783289999999999
 30
0.0
 11
49.355213999999997
 21
13.615899000000001
 31
0.0
  0
LINE
  5
74
  8
DAIKO
 10
49.355213999999997
 20
14.050179999999999
 30
0.0
 11
49.226770999999999
 21
13.951622
 31
0.0
  0
LINE
  5
75
  8
DAIKO
 10
49.383029000000001
 20
14.74962
 30
0.0
 11
49.383029000000001
 21
14.112247
 31
0.0
  0
LINE
  5
76
  8
DAIKO
 10
49.383029000000001
 20
13.538925000000001
 30
0.0
 11
49.383029000000001
 21
12.468669
 31
0.0
  0
LINE
  5
77
  8
DAIKO
 10
3.4666000000000001
 20
2.916866999999999
 30
0.0
 11
3.4666000000000001
 21
2.770751999999999
 31
0.0
  0
LINE
  5
78
  8
DAIKO
 10
2.8493159999999991
 20
0.0
 30
0.0
 11
3.4191159999999998
 21
0.152678
 31
0.0
  0
LINE
  5
79
  8
DAIKO
 10
3.4666000000000001
 20
1.235657
 30
0.0
 11
3.4666000000000001
 21
0.165401
 31
0.0
  0
LINE
  5
7A
  8
DAIKO
 10
3.4666000000000001
 20
1.8089789999999999
 30
0.0
 11
3.4666000000000001
 21
2.4463509999999991
 31
0.0
  0
LINE
  5
7B
  8
DAIKO
 10
49.326096999999997
 20
13.558431000000001
 30
0.0
 11
48.742004000000001
 21
13.401923
 31
0.0
  0
LINE
  5
7C
  8
DAIKO
 10
3.5073910000000001
 20
1.7851490000000001
 30
0.0
 11
4.1076249999999987
 21
1.945981
 31
0.0
  0
LINE
  5
7D
  8
DAIKO
 10
49.157628000000003
 20
13.873397000000001
 30
0.0
 11
48.742004000000001
 21
13.762031
 31
0.0
  0
LINE
  5
7E
  8
DAIKO
 10
4.1076249999999987
 20
1.8022869999999991
 30
0.0
 11
3.4191159999999998
 21
1.617802
 31
0.0
  0
LINE
  5
7F
  8
DAIKO
 10
4.1076249999999987
 20
1.4421790000000001
 30
0.0
 11
3.5073910000000001
 21
1.281347999999999
 31
0.0
  0
LINE
  5
80
  8
DAIKO
 10
4.1076249999999987
 20
0.307668
 30
0.0
 11
4.1076249999999987
 21
1.9640259999999989
 31
0.0
  0
LINE
  5
81
  8
DAIKO
 10
4.1076249999999987
 20
1.9640259999999989
 30
0.0
 11
8.8559640000000002
 21
3.2363390000000001
 31
0.0
  0
LINE
  5
82
  8
DAIKO
 10
8.8559640000000002
 20
3.2363390000000001
 30
0.0
 11
8.8559640000000002
 21
1.579980999999999
 31
0.0
  0
LINE
  5
83
  8
DAIKO
 10
8.8559640000000002
 20
1.579980999999999
 30
0.0
 11
4.1076249999999987
 21
0.307668
 31
0.0
  0
LINE
  5
84
  8
DAIKO
 10
3.4666000000000001
 20
0.165401
 30
0.0
 11
4.1076249999999987
 21
0.337163
 31
0.0
  0
LINE
  5
85
  8
DAIKO
 10
48.742004000000001
 20
13.905725
 30
0.0
 11
49.291207999999997
 21
14.052883
 31
0.0
  0
LINE
  5
86
  8
DAIKO
 10
48.742004000000001
 20
13.923769999999999
 30
0.0
 11
48.742004000000001
 21
12.267410999999999
 31
0.0
  0
LINE
  5
87
  8
DAIKO
 10
48.742004000000001
 20
12.267410999999999
 30
0.0
 11
43.99366599999999
 21
10.995099
 31
0.0
  0
LINE
  5
88
  8
DAIKO
 10
43.99366599999999
 20
10.995099
 30
0.0
 11
43.99366599999999
 21
12.651456
 31
0.0
  0
LINE
  5
89
  8
DAIKO
 10
43.99366599999999
 20
12.651456
 30
0.0
 11
48.742004000000001
 21
13.923769999999999
 31
0.0
  0
LINE
  5
8A
  8
DAIKO
 10
49.383029000000001
 20
12.468669
 30
0.0
 11
48.742004000000001
 21
12.296906999999999
 31
0.0
  0
LINE
  5
8B
  8
DAIKO
 10
3.4666000000000001
 20
0.165401
 30
0.0
 11
3.4191159999999998
 21
0.178124
 31
0.0
  0
LINE
  5
8C
  8
DAIKO
 10
49.430512999999998
 20
12.481392
 30
0.0
 11
49.383029000000001
 21
12.494115000000001
 31
0.0
  0
LINE
  5
8D
  8
DAIKO
 10
49.382474999999999
 20
15.059072
 30
0.0
 11
49.383029000000001
 21
15.220135000000001
 31
0.0
  0
LINE
  5
8E
  8
DAIKO
 10
8.8559640000000002
 20
1.609477
 30
0.0
 11
43.99366599999999
 21
11.024592999999999
 31
0.0
  0
LINE
  5
8F
  8
DAIKO
 10
43.99366599999999
 20
12.12961
 30
0.0
 11
8.8559640000000002
 21
2.714493
 31
0.0
  0
LINE
  5
90
  8
DAIKO
 10
43.99366599999999
 20
12.489718
 30
0.0
 11
8.8559640000000002
 21
3.074600999999999
 31
0.0
  0
LINE
  5
91
  8
DAIKO
 10
8.8559640000000002
 20
3.2182939999999989
 30
0.0
 11
43.99366599999999
 21
12.633411000000001
 31
0.0
  0
LINE
  5
92
  8
DAIKO
 10
49.193095999999997
 20
15.268964
 30
0.0
 11
3.5082149999999999
 21
3.0277389999999991
 31
0.0
  0
LINE
  5
93
  8
DAIKO
 10
49.178198999999999
 20
14.897868000000001
 30
0.0
 11
3.4191159999999998
 21
2.636760999999999
 31
0.0
  0
LINE
  5
94
  8
DAIKO
 10
46.610991999999989
 20
16.093869000000002
 30
0.0
 11
0.6945630000000002
 21
3.7906010000000001
 31
0.0
  0
TEXT
  5
95
  8
DAIKO
 10
0.0
 20
-10.0
 30
0.0
 40
3.0
  1
DSY-5267FW
  7
BIGFONT
  0
ENDSEC
  0
EOF
