  0
SECTION
  2
HEADER
  9
$ACADVER
  1
AC1009
  9
$INSBASE
 10
0.0
 20
0.0
 30
0.0
  9
$EXTMIN
 10
0.0
 20
-10.0
 30
0.0
  9
$EXTMAX
 10
50.000438000000003
 20
17.426729725322399
 30
0.0
  9
$LIMMIN
 10
0.0
 20
0.0
  9
$LIMMAX
 10
12.0
 20
9.0
  9
$ORTHOMODE
 70
     0
  9
$REGENMODE
 70
     1
  9
$FILLMODE
 70
     1
  9
$QTEXTMODE
 70
     0
  9
$MIRRTEXT
 70
     0
  9
$DRAGMODE
 70
     2
  9
$LTSCALE
 40
1.0
  9
$OSMODE
 70
    37
  9
$ATTMODE
 70
     1
  9
$TEXTSIZE
 40
0.0
  9
$TRACEWID
 40
0.05
  9
$TEXTSTYLE
  7
STANDARD
  9
$CLAYER
  8
0
  9
$CELTYPE
  6
CONTINUOUS
  9
$CECOLOR
 62
   256
  9
$DIMSCALE
 40
1.0
  9
$DIMASZ
 40
0.18
  9
$DIMEXO
 40
0.0625
  9
$DIMDLI
 40
0.38
  9
$DIMRND
 40
0.0
  9
$DIMDLE
 40
0.0
  9
$DIMEXE
 40
0.18
  9
$DIMTP
 40
0.0
  9
$DIMTM
 40
0.0
  9
$DIMTXT
 40
0.18
  9
$DIMCEN
 40
0.09
  9
$DIMTSZ
 40
0.0
  9
$DIMTOL
 70
     0
  9
$DIMLIM
 70
     0
  9
$DIMTIH
 70
     1
  9
$DIMTOH
 70
     1
  9
$DIMSE1
 70
     0
  9
$DIMSE2
 70
     0
  9
$DIMTAD
 70
     0
  9
$DIMZIN
 70
     0
  9
$DIMBLK
  1

  9
$DIMASO
 70
     1
  9
$DIMSHO
 70
     1
  9
$DIMPOST
  1

  9
$DIMAPOST
  1

  9
$DIMALT
 70
     0
  9
$DIMALTD
 70
     2
  9
$DIMALTF
 40
25.399999999999999
  9
$DIMLFAC
 40
1.0
  9
$DIMTOFL
 70
     0
  9
$DIMTVP
 40
0.0
  9
$DIMTIX
 70
     0
  9
$DIMSOXD
 70
     0
  9
$DIMSAH
 70
     0
  9
$DIMBLK1
  1

  9
$DIMBLK2
  1

  9
$DIMSTYLE
  2
STANDARD
  9
$DIMCLRD
 70
     0
  9
$DIMCLRE
 70
     0
  9
$DIMCLRT
 70
     0
  9
$DIMTFAC
 40
1.0
  9
$DIMGAP
 40
0.09
  9
$LUNITS
 70
     2
  9
$LUPREC
 70
     4
  9
$SKETCHINC
 40
0.1
  9
$FILLETRAD
 40
0.0
  9
$AUNITS
 70
     0
  9
$AUPREC
 70
     0
  9
$MENU
  1
.
  9
$ELEVATION
 40
0.0
  9
$PELEVATION
 40
0.0
  9
$THICKNESS
 40
0.0
  9
$LIMCHECK
 70
     0
  9
$BLIPMODE
 70
     0
  9
$CHAMFERA
 40
0.0
  9
$CHAMFERB
 40
0.0
  9
$SKPOLY
 70
     0
  9
$TDCREATE
 40
2458281.7390556708
  9
$TDUPDATE
 40
2458281.7613182408
  9
$TDINDWG
 40
0.0000389468
  9
$TDUSRTIMER
 40
0.0000389468
  9
$USRTIMER
 70
     1
  9
$ANGBASE
 50
0.0
  9
$ANGDIR
 70
     0
  9
$PDMODE
 70
     0
  9
$PDSIZE
 40
0.0
  9
$PLINEWID
 40
0.0
  9
$COORDS
 70
     1
  9
$SPLFRAME
 70
     0
  9
$SPLINETYPE
 70
     6
  9
$SPLINESEGS
 70
     8
  9
$ATTDIA
 70
     0
  9
$ATTREQ
 70
     1
  9
$HANDLING
 70
     1
  9
$HANDSEED
  5
AF
  9
$SURFTAB1
 70
     6
  9
$SURFTAB2
 70
     6
  9
$SURFTYPE
 70
     6
  9
$SURFU
 70
     6
  9
$SURFV
 70
     6
  9
$UCSNAME
  2

  9
$UCSORG
 10
0.0
 20
0.0
 30
0.0
  9
$UCSXDIR
 10
1.0
 20
0.0
 30
0.0
  9
$UCSYDIR
 10
0.0
 20
1.0
 30
0.0
  9
$PUCSNAME
  2

  9
$PUCSORG
 10
0.0
 20
0.0
 30
0.0
  9
$PUCSXDIR
 10
1.0
 20
0.0
 30
0.0
  9
$PUCSYDIR
 10
0.0
 20
1.0
 30
0.0
  9
$USERI1
 70
     0
  9
$USERI2
 70
     0
  9
$USERI3
 70
     0
  9
$USERI4
 70
     0
  9
$USERI5
 70
     0
  9
$USERR1
 40
0.0
  9
$USERR2
 40
0.0
  9
$USERR3
 40
0.0
  9
$USERR4
 40
0.0
  9
$USERR5
 40
0.0
  9
$WORLDVIEW
 70
     1
  9
$SHADEDGE
 70
     3
  9
$SHADEDIF
 70
    70
  9
$TILEMODE
 70
     1
  9
$MAXACTVP
 70
    64
  9
$PLIMCHECK
 70
     0
  9
$PEXTMIN
 10
1.0000000000000000E+020
 20
1.0000000000000000E+020
 30
1.0000000000000000E+020
  9
$PEXTMAX
 10
-1.0000000000000000E+020
 20
-1.0000000000000000E+020
 30
-1.0000000000000000E+020
  9
$PLIMMIN
 10
0.0
 20
0.0
  9
$PLIMMAX
 10
12.0
 20
9.0
  9
$UNITMODE
 70
     0
  9
$VISRETAIN
 70
     1
  9
$PLINEGEN
 70
     0
  9
$PSLTSCALE
 70
     1
  0
ENDSEC
  0
SECTION
  2
TABLES
  0
TABLE
  2
VPORT
 70
     2
  0
VPORT
  2
*ACTIVE
 70
     0
 10
0.0
 20
0.0
 11
1.0
 21
1.0
 12
25.000219116416339
 22
3.7191715051835579
 13
0.0
 23
0.0
 14
1.0
 24
1.0
 15
0.0
 25
0.0
 16
0.0
 26
0.0
 36
1.0
 17
0.0
 27
0.0
 37
0.0
 40
27.687081843846371
 41
2.05722891566265
 42
50.0
 43
0.0
 44
0.0
 50
0.0
 51
0.0
 71
     0
 72
   100
 73
     1
 74
     1
 75
     0
 76
     0
 77
     0
 78
     0
  0
ENDTAB
  0
TABLE
  2
LTYPE
 70
     8
  0
LTYPE
  2
CONTINUOUS
 70
     0
  3
Solid line
 72
    65
 73
     0
 40
0.0
  0
LTYPE
  2
CENTER_DASH_DASH
 70
     0
  3
Center_Dash_Dash
 72
    65
 73
     6
 40
22.0
 49
12.0
 49
-3.0
 49
0.5
 49
-3.0
 49
0.5
 49
-3.0
  0
LTYPE
  2
DASHED
 70
     0
  3
Dashed
 72
    65
 73
     2
 40
15.0
 49
12.0
 49
-3.0
  0
LTYPE
  2
DASH_CENTER
 70
     0
  3
Dash_Center
 72
    65
 73
     4
 40
36.0
 49
24.0
 49
-3.0
 49
6.0
 49
-3.0
  0
LTYPE
  2
DOTTED
 70
     0
  3
Dotted
 72
    65
 73
     2
 40
3.5
 49
0.5
 49
-3.0
  0
LTYPE
  2
DOT_CENTER
 70
     0
  3
Dot_Center
 72
    65
 73
     4
 40
2.0
 49
1.25
 49
-0.25
 49
0.25
 49
-0.25
  0
LTYPE
  2
LONG_DASHED
 70
     0
  3
Long_Dashed
 72
    65
 73
     2
 40
2.0
 49
1.5
 49
-0.5
  0
LTYPE
  2
PHANTOM
 70
     0
  3
Phantom
 72
    65
 73
     6
 40
2.5
 49
1.25
 49
-0.25
 49
0.25
 49
-0.25
 49
0.25
 49
-0.25
  0
ENDTAB
  0
TABLE
  2
LAYER
 70
     2
  0
LAYER
  2
0
 70
     0
 62
     7
  6
CONTINUOUS
  0
LAYER
  2
DAIKO
 70
     0
 62
     7
  6
CONTINUOUS
  0
ENDTAB
  0
TABLE
  2
STYLE
 70
     3
  0
STYLE
  2
STANDARD
 70
     0
 40
0.0
 41
1.0
 50
0.0
 71
     0
 42
0.0
  3
txt
  4

  0
STYLE
  2
BIGFONT
 70
     0
 40
1.0
 41
1.0
 50
0.0
 71
     0
 42
0.0
  3
txt
  4
bigfont
  0
STYLE
  2
CONVERTER_1
 70
     0
 40
0.0
 41
0.9
 50
0.0
 71
     0
 42
0.0
  3
txt.shx
  4

  0
ENDTAB
  0
TABLE
  2
VIEW
 70
     0
  0
ENDTAB
  0
TABLE
  2
UCS
 70
     0
  0
ENDTAB
  0
TABLE
  2
APPID
 70
     1
  0
APPID
  2
ACAD
 70
     0
  0
ENDTAB
  0
TABLE
  2
DIMSTYLE
 70
     1
  0
DIMSTYLE
  2
STANDARD
 70
     0
  3

  4

  5

  6

  7

 40
1.0
 41
0.18
 42
0.0625
 43
0.38
 44
0.18
 45
0.0
 46
0.0
 47
0.0
 48
0.0
140
0.18
141
0.09
142
0.0
143
25.399999999999999
144
1.0
145
0.0
146
1.0
147
0.09
 71
     0
 72
     0
 73
     1
 74
     1
 75
     0
 76
     0
 77
     0
 78
     0
170
     0
171
     2
172
     0
173
     0
174
     0
175
     0
176
     0
177
     0
178
     0
  0
ENDTAB
  0
ENDSEC
  0
SECTION
  2
BLOCKS
  0
BLOCK
  8
0
  2
$MODEL_SPACE
 70
     0
 10
0.0
 20
0.0
 30
0.0
  3
$MODEL_SPACE
  1

  0
ENDBLK
  5
24
  8
0
  0
BLOCK
 67
     1
  8
0
  2
$PAPER_SPACE
 70
     0
 10
0.0
 20
0.0
 30
0.0
  3
$PAPER_SPACE
  1

  0
ENDBLK
  5
20
 67
     1
  8
0
  0
ENDSEC
  0
SECTION
  2
ENTITIES
  0
ARC
  5
33
  8
DAIKO
 10
45.337998999999989
 20
17.144138000000002
 30
0.0
 40
0.043167
 50
104.498778
 51
135.33141699999999
  0
ARC
  5
34
  8
DAIKO
 10
48.948605999999998
 20
15.281084999999999
 30
0.0
 40
0.188757
 50
2.1997619999999989
 51
72.800238000000007
  0
ARC
  5
35
  8
DAIKO
 10
48.939266000000003
 20
15.725804
 30
0.0
 40
0.19724
 50
286.02606299999991
 51
358.62498199999999
  0
ARC
  5
36
  8
DAIKO
 10
48.854651000000011
 20
15.936448
 30
0.0
 40
0.282745
 50
1.9974590000000001
 51
56.736429999999999
  0
ARC
  5
37
  8
DAIKO
 10
45.478854999999989
 20
10.962624999999999
 30
0.0
 40
6.2939439999999998
 50
55.875269999999993
 51
74.647750000000016
  0
ARC
  5
38
  8
DAIKO
 10
45.812262999999987
 20
12.113731
 30
0.0
 40
5.0956700000000001
 50
74.836124999999996
 51
88.279802000000004
  0
ARC
  5
39
  8
DAIKO
 10
45.838784999999987
 20
13.106051000000001
 30
0.0
 40
4.1030030000000002
 50
88.234018999999975
 51
98.098264999999984
  0
ARC
  5
3A
  8
DAIKO
 10
45.921222999999991
 20
12.878648999999999
 30
0.0
 40
4.348050999999999
 50
85.487782999999993
 51
97.852329000000026
  0
ARC
  5
3B
  8
DAIKO
 10
45.879550000000002
 20
12.180346
 30
0.0
 40
5.0474849999999991
 50
77.471842000000009
 51
85.639805999999993
  0
ARC
  5
3C
  8
DAIKO
 10
45.716433000000002
 20
11.464435999999999
 30
0.0
 40
5.7817339999999993
 50
66.457464000000002
 51
77.432819999999992
  0
ARC
  5
3D
  8
DAIKO
 10
45.411073999999999
 20
10.744315
 30
0.0
 40
6.5638889999999988
 50
55.863824000000008
 51
66.524640000000005
  0
ARC
  5
3E
  8
DAIKO
 10
46.646390999999987
 20
11.716127
 30
0.0
 40
5.6882229999999998
 50
55.006273999999991
 51
61.567347000000012
  0
ARC
  5
3F
  8
DAIKO
 10
46.577346999999989
 20
11.793331999999999
 30
0.0
 40
5.6540449999999991
 50
60.579526999999999
 51
85.101968000000014
  0
ARC
  5
40
  8
DAIKO
 10
46.717922999999992
 20
13.096037000000001
 30
0.0
 40
4.3441900000000002
 50
85.482268000000005
 51
97.857845000000012
  0
ARC
  5
41
  8
DAIKO
 10
49.717576999999999
 20
16.167038999999999
 30
0.0
 40
0.283058
 50
2.1382310000000002
 51
47.581494999999997
  0
ARC
  5
42
  8
DAIKO
 10
48.919569000000003
 20
15.953201999999999
 30
0.0
 40
0.284266
 50
2.1960229999999989
 51
52.026124000000003
  0
ARC
  5
43
  8
DAIKO
 10
48.954601000000011
 20
13.590144
 30
0.0
 40
0.182696
 50
1.613645999999999
 51
38.121963999999998
  0
ARC
  5
44
  8
DAIKO
 10
49.036209999999997
 20
14.054707000000001
 30
0.0
 40
0.166309
 50
134.95171500000001
 51
225.04828499999999
  0
ARC
  5
45
  8
DAIKO
 10
49.0274
 20
14.394129
 30
0.0
 40
0.109862
 50
310.21078199999999
 51
1.5107740000000001
  0
ARC
  5
46
  8
DAIKO
 10
4.650059999999999
 20
1.719522999999999
 30
0.0
 40
0.197835
 50
2.441463999999999
 51
48.436165000000003
  0
ARC
  5
47
  8
DAIKO
 10
4.7414829999999997
 20
2.524894999999999
 30
0.0
 40
0.10634
 50
291.99747000000002
 51
2.5828919999999989
  0
ARC
  5
48
  8
DAIKO
 10
4.6574910000000003
 20
3.4132379999999989
 30
0.0
 40
0.190382
 50
2.3344969999999998
 51
49.428764999999999
  0
ARC
  5
49
  8
DAIKO
 10
4.6321069999999986
 20
3.8664089999999991
 30
0.0
 40
0.215765
 50
313.75095700000003
 51
2.185397
  0
ARC
  5
4A
  8
DAIKO
 10
0.9898229999999999
 20
5.2621839999999986
 30
0.0
 40
0.042838
 50
115.647485
 51
139.57966200000001
  0
ARC
  5
4B
  8
DAIKO
 10
1.5412349999999999
 20
1.3107200000000001
 30
0.0
 40
4.0305809999999989
 50
89.768356999999995
 51
98.129295999999997
  0
ARC
  5
4C
  8
DAIKO
 10
1.5541739999999991
 20
0.600615
 30
0.0
 40
4.7406559999999986
 50
82.854112999999984
 51
89.959423000000015
  0
ARC
  5
4D
  8
DAIKO
 10
1.4427769999999991
 20
-0.146947
 30
0.0
 40
5.4962960000000001
 50
69.120688000000001
 51
82.671296999999996
  0
ARC
  5
4E
  8
DAIKO
 10
1.0511469999999989
 20
-1.1644689999999991
 30
0.0
 40
6.5865780000000003
 50
56.147711999999999
 51
69.092268000000004
  0
ARC
  5
4F
  8
DAIKO
 10
4.5619350000000001
 20
4.0673050000000002
 30
0.0
 40
0.286018
 50
2.3363659999999991
 51
56.397522000000002
  0
ARC
  5
50
  8
DAIKO
 10
4.4964079999999989
 20
4.0500049999999996
 30
0.0
 40
0.285125
 50
2.2447680000000001
 51
56.489119999999993
  0
ARC
  5
51
  8
DAIKO
 10
0.8168140000000002
 20
-1.4593780000000001
 30
0.0
 40
6.9102809999999986
 50
56.271301000000001
 51
58.784320999999991
  0
ARC
  5
52
  8
DAIKO
 10
1.0430019999999991
 20
-1.0590889999999991
 30
0.0
 40
6.450734999999999
 50
58.659846999999992
 51
69.185209
  0
ARC
  5
53
  8
DAIKO
 10
1.4420729999999991
 20
0.085454
 30
0.0
 40
5.2391920000000001
 50
68.816822000000002
 51
88.170693999999983
  0
ARC
  5
54
  8
DAIKO
 10
1.491317999999999
 20
1.068292
 30
0.0
 40
4.2553199999999993
 50
88.410977000000003
 51
97.921307000000013
  0
ARC
  5
55
  8
DAIKO
 10
0.148426
 20
4.9265860000000004
 30
0.0
 40
0.148426
 50
103.65438399999999
 51
184.40172799999991
  0
ARC
  5
56
  8
DAIKO
 10
0.6980920000000001
 20
0.899695
 30
0.0
 40
4.2113459999999989
 50
85.286279000000007
 51
98.053834000000009
  0
ARC
  5
57
  8
DAIKO
 10
0.6125180000000001
 20
-0.258791
 30
0.0
 40
5.372954
 50
68.995046000000002
 51
85.392034999999993
  0
ARC
  5
58
  8
DAIKO
 10
0.307288
 20
-1.1367869999999991
 30
0.0
 40
6.3020870000000002
 50
55.326118999999998
 51
69.265695999999991
  0
ARC
  5
59
  8
DAIKO
 10
3.7044049999999999
 20
3.838387
 30
0.0
 40
0.280251
 50
1.8976939999999991
 51
47.822032
  0
ARC
  5
5A
  8
DAIKO
 10
3.4359690000000001
 20
3.4286660000000002
 30
0.0
 40
0.283136
 50
2.1997619999999989
 51
72.800238000000007
  0
ARC
  5
5B
  8
DAIKO
 10
0.415811
 20
4.3757720000000004
 30
0.0
 40
0.150175
 50
70.781132999999997
 51
184.21886699999999
  0
LINE
  5
5C
  8
DAIKO
 10
45.26079
 20
17.168137999999999
 30
0.0
 11
0.971281
 21
5.300800999999999
 31
0.0
  0
LINE
  5
5D
  8
DAIKO
 10
48.850788000000001
 20
15.495642999999999
 30
0.0
 11
4.7813140000000001
 21
3.687263999999999
 31
0.0
  0
LINE
  5
5E
  8
DAIKO
 10
48.87162
 20
16.014586000000001
 30
0.0
 11
4.9059099999999987
 21
4.2340099999999987
 31
0.0
  0
LINE
  5
5F
  8
DAIKO
 10
12.384236
 20
4.500483
 30
0.0
 11
41.600704
 21
12.329012000000001
 31
0.0
  0
LINE
  5
60
  8
DAIKO
 10
41.600704
 20
12.128069
 30
0.0
 11
12.384236
 21
4.2995419999999989
 31
0.0
  0
LINE
  5
61
  8
DAIKO
 10
41.600704
 20
11.624492999999999
 30
0.0
 11
12.384236
 21
3.7959640000000001
 31
0.0
  0
LINE
  5
62
  8
DAIKO
 10
12.384236
 20
2.2507019999999991
 30
0.0
 11
41.600704
 21
10.079230000000001
 31
0.0
  0
LINE
  5
63
  8
DAIKO
 10
49.136448999999999
 20
15.721071
 30
0.0
 11
49.137224000000003
 21
15.946303
 31
0.0
  0
LINE
  5
64
  8
DAIKO
 10
49.203626
 20
12.116427
 30
0.0
 11
49.137224000000003
 21
12.134219
 31
0.0
  0
LINE
  5
65
  8
DAIKO
 10
4.8477149999999991
 20
0.231298
 30
0.0
 11
4.7813140000000001
 21
0.24909
 31
0.0
  0
LINE
  5
66
  8
DAIKO
 10
49.137224000000003
 20
12.098635
 30
0.0
 11
48.240809999999989
 21
11.858442
 31
0.0
  0
LINE
  5
67
  8
DAIKO
 10
41.600704
 20
12.354245000000001
 30
0.0
 11
48.240809999999989
 21
14.133457
 31
0.0
  0
LINE
  5
68
  8
DAIKO
 10
41.600704
 20
10.037984
 30
0.0
 11
41.600704
 21
12.354245000000001
 31
0.0
  0
LINE
  5
69
  8
DAIKO
 10
48.240809999999989
 20
11.817195
 30
0.0
 11
41.600704
 21
10.037984
 31
0.0
  0
LINE
  5
6A
  8
DAIKO
 10
48.240809999999989
 20
14.133457
 30
0.0
 11
48.240809999999989
 21
11.817195
 31
0.0
  0
LINE
  5
6B
  8
DAIKO
 10
48.240809999999989
 20
14.108223000000001
 30
0.0
 11
49.00882
 21
14.31401
 31
0.0
  0
LINE
  5
6C
  8
DAIKO
 10
4.8477149999999991
 20
0.231298
 30
0.0
 11
5.7441300000000002
 21
0.471491
 31
0.0
  0
LINE
  5
6D
  8
DAIKO
 10
12.384236
 20
2.2094559999999999
 30
0.0
 11
5.7441300000000002
 21
0.4302450000000001
 31
0.0
  0
LINE
  5
6E
  8
DAIKO
 10
12.384236
 20
4.5257170000000002
 30
0.0
 11
12.384236
 21
2.2094559999999999
 31
0.0
  0
LINE
  5
6F
  8
DAIKO
 10
5.7441300000000002
 20
2.7465060000000001
 30
0.0
 11
12.384236
 21
4.5257170000000002
 31
0.0
  0
LINE
  5
70
  8
DAIKO
 10
5.7441300000000002
 20
0.4302450000000001
 30
0.0
 11
5.7441300000000002
 21
2.7465060000000001
 31
0.0
  0
LINE
  5
71
  8
DAIKO
 10
5.7441300000000002
 20
2.016753
 30
0.0
 11
4.9047580000000002
 21
1.7918449999999999
 31
0.0
  0
LINE
  5
72
  8
DAIKO
 10
5.7441300000000002
 20
2.5203299999999991
 30
0.0
 11
4.7813140000000001
 21
2.2623439999999988
 31
0.0
  0
LINE
  5
73
  8
DAIKO
 10
48.822021999999997
 20
14.063015999999999
 30
0.0
 11
48.240809999999989
 21
13.907280999999999
 31
0.0
  0
LINE
  5
74
  8
DAIKO
 10
4.9047580000000002
 20
2.4963630000000001
 30
0.0
 11
5.7441300000000002
 21
2.7212730000000001
 31
0.0
  0
LINE
  5
75
  8
DAIKO
 10
49.057609999999997
 20
13.622564000000001
 30
0.0
 11
48.240809999999989
 21
13.403703
 31
0.0
  0
LINE
  5
76
  8
DAIKO
 10
4.8477149999999991
 20
2.5296880000000002
 30
0.0
 11
4.8477149999999991
 21
3.4209930000000002
 31
0.0
  0
LINE
  5
77
  8
DAIKO
 10
4.8477149999999991
 20
1.7279509999999989
 30
0.0
 11
4.8477149999999991
 21
0.231298
 31
0.0
  0
LINE
  5
78
  8
DAIKO
 10
3.9845019999999991
 20
0.0
 30
0.0
 11
4.7813140000000001
 21
0.213505
 31
0.0
  0
LINE
  5
79
  8
DAIKO
 10
4.8477149999999991
 20
4.0789660000000003
 30
0.0
 11
4.8477149999999991
 21
3.8746369999999999
 31
0.0
  0
LINE
  5
7A
  8
DAIKO
 10
49.137224000000003
 20
13.595288
 30
0.0
 11
49.137224000000003
 21
12.098635
 31
0.0
  0
LINE
  5
7B
  8
DAIKO
 10
49.137224000000003
 20
15.288330999999999
 30
0.0
 11
49.137224000000003
 21
14.397024999999999
 31
0.0
  0
LINE
  5
7C
  8
DAIKO
 10
49.098326999999998
 20
14.310230000000001
 30
0.0
 11
48.918711000000002
 21
14.172404999999999
 31
0.0
  0
LINE
  5
7D
  8
DAIKO
 10
48.918711000000002
 20
13.937009
 30
0.0
 11
49.098326999999998
 21
13.702928
 31
0.0
  0
LINE
  5
7E
  8
DAIKO
 10
48.878259999999997
 20
15.495206
 30
0.0
 11
49.004421999999998
 21
15.461401
 31
0.0
  0
LINE
  5
7F
  8
DAIKO
 10
49.203626
 20
12.116427
 30
0.0
 11
50.000438000000003
 21
12.329931999999999
 31
0.0
  0
LINE
  5
80
  8
DAIKO
 10
49.203626
 20
16.103546000000001
 30
0.0
 11
49.899778999999988
 21
16.29008
 31
0.0
  0
LINE
  5
81
  8
DAIKO
 10
45.327190999999999
 20
17.185929999999999
 30
0.0
 11
46.124003999999999
 21
17.399436000000001
 31
0.0
  0
LINE
  5
82
  8
DAIKO
 10
49.203626
 20
15.964095
 30
0.0
 11
49.203626
 21
12.116427
 31
0.0
  0
LINE
  5
83
  8
DAIKO
 10
0.7972500000000001
 20
0.9915079999999999
 30
0.0
 11
0.930053
 21
0.9559239999999999
 31
0.0
  0
LINE
  5
84
  8
DAIKO
 10
0.9048799999999999
 20
5.2830079999999997
 30
0.0
 11
0.108068
 21
5.0695030000000001
 31
0.0
  0
LINE
  5
85
  8
DAIKO
 10
3.9845019999999991
 20
3.9871199999999991
 30
0.0
 11
4.674612999999999
 21
4.172034
 31
0.0
  0
LINE
  5
86
  8
DAIKO
 10
4.7813140000000001
 20
4.0611739999999994
 30
0.0
 11
4.7813140000000001
 21
0.213505
 31
0.0
  0
LINE
  5
87
  8
DAIKO
 10
50.000438000000003
 20
16.177600000000002
 30
0.0
 11
50.000438000000003
 21
12.329931999999999
 31
0.0
  0
LINE
  5
88
  8
DAIKO
 10
3.054886999999999
 20
0.24909
 30
0.0
 11
3.054886999999999
 21
0.386576
 31
0.0
  0
LINE
  5
89
  8
DAIKO
 10
3.054886999999999
 20
0.386576
 30
0.0
 11
3.1876889999999989
 21
0.350993
 31
0.0
  0
LINE
  5
8A
  8
DAIKO
 10
3.1876889999999989
 20
0.350993
 30
0.0
 11
3.1876889999999989
 21
0.213505
 31
0.0
  0
LINE
  5
8B
  8
DAIKO
 10
3.054886999999999
 20
0.317833
 30
0.0
 11
3.1876889999999989
 21
0.282249
 31
0.0
  0
LINE
  5
8C
  8
DAIKO
 10
0.7972500000000001
 20
0.9227649999999998
 30
0.0
 11
0.930053
 21
0.88718
 31
0.0
  0
LINE
  5
8D
  8
DAIKO
 10
0.930053
 20
0.9559239999999999
 30
0.0
 11
0.930053
 21
0.8184369999999999
 31
0.0
  0
LINE
  5
8E
  8
DAIKO
 10
0.7972500000000001
 20
0.854022
 30
0.0
 11
0.7972500000000001
 21
0.9915079999999999
 31
0.0
  0
LINE
  5
8F
  8
DAIKO
 10
3.7188979999999998
 20
3.4395339999999992
 30
0.0
 11
3.7188979999999998
 21
0.071169
 31
0.0
  0
LINE
  5
90
  8
DAIKO
 10
0.465245
 20
4.5175780000000003
 30
0.0
 11
3.5196939999999999
 21
3.699141
 31
0.0
  0
LINE
  5
91
  8
DAIKO
 10
0.266042
 20
4.3647249999999991
 30
0.0
 11
0.266042
 21
0.996358
 31
0.0
  0
LINE
  5
92
  8
DAIKO
 10
3.9845019999999991
 20
0.0
 30
0.0
 11
0.000438
 21
1.0675269999999999
 31
0.0
  0
LINE
  5
93
  8
DAIKO
 10
0.000438
 20
4.9151949999999989
 30
0.0
 11
0.000438
 21
1.0675269999999999
 31
0.0
  0
LINE
  5
94
  8
DAIKO
 10
3.9845019999999991
 20
3.8476680000000001
 30
0.0
 11
3.9845019999999991
 21
0.0
 31
0.0
  0
TEXT
  5
95
  8
DAIKO
 10
0.0
 20
-10.0
 30
0.0
 40
3.0
  1
DSY-5266FW
  7
BIGFONT
  0
ENDSEC
  0
EOF
