  0
SECTION
  2
HEADER
  9
$EXTMIN
 10
0.000000
 20
-40.000000
 30
0.000000
  9
$EXTMAX
 10
48.705386
 20
33.734624
 30
0.000000
  0
ENDSEC
  0
SECTION
  2
TABLES
  0
TABLE
  2
LTYPE
 70
     8
  0
LTYPE
  2
CENTER_DASH_DASH
 70
     0
  3
Center_Dash_Dash
 72
    65
 73
     6
 40
22.000000
 49
12.000000
 49
-3.000000
 49
0.500000
 49
-3.000000
 49
0.500000
 49
-3.000000
  0
LTYPE
  2
CONTINUOUS
 70
     0
  3
Solid line
 72
    65
 73
     0
 40
0.000000
  0
LTYPE
  2
DASHED
 70
     0
  3
Dashed
 72
    65
 73
     2
 40
15.000000
 49
12.000000
 49
-3.000000
  0
LTYPE
  2
DASH_CENTER
 70
     0
  3
Dash_Center
 72
    65
 73
     4
 40
36.000000
 49
24.000000
 49
-3.000000
 49
6.000000
 49
-3.000000
  0
LTYPE
  2
DOTTED
 70
     0
  3
Dotted
 72
    65
 73
     2
 40
3.500000
 49
0.500000
 49
-3.000000
  0
LTYPE
  2
DOT_CENTER
 70
     0
  3
Dot_Center
 72
    65
 73
     4
 40
2.000000
 49
1.250000
 49
-0.250000
 49
0.250000
 49
-0.250000
  0
LTYPE
  2
LONG_DASHED
 70
     0
  3
Long_Dashed
 72
    65
 73
     2
 40
2.000000
 49
1.500000
 49
-0.500000
  0
LTYPE
  2
PHANTOM
 70
     0
  3
Phantom
 72
    65
 73
     6
 40
2.500000
 49
1.250000
 49
-0.250000
 49
0.250000
 49
-0.250000
 49
0.250000
 49
-0.250000
  0
ENDTAB
  0
TABLE
  2
STYLE
 70
     2
  0
STYLE
  2
BIGFONT
 70
     0
 40
1.000000
 41
1.000000
 50
0.000000
 71
     0
 42
0.000000
  3
txt
  4
bigfont
  0
STYLE
  2
STANDARD
 70
     0
 40
0.000000
 41
1.000000
 50
0.000000
 71
     0
 42
0.000000
  3
txt
  4

  0
ENDTAB
  0
TABLE
  2
LAYER
 70
     1
  0
LAYER
  2
daiko
 70
     0
 62
     7
  6
CONTINUOUS
  0
ENDTAB
  0
ENDSEC
  0
SECTION
  2
BLOCKS
  0
BLOCK
  8
daiko
  2
TOP
 70
     0
 10
0.000000
 20
0.000000
 30
0.000000
  3
TOP
  1

  0
ARC
  8
daiko
 10
34.301992
 20
8.959149
 30
0.000000
 40
5.285798
 50
334.370740
 51
29.093033
  0
ARC
  8
daiko
 10
31.125274
 20
7.068768
 30
0.000000
 40
8.981513
 50
29.777302
 51
55.389589
  0
ARC
  8
daiko
 10
26.113919
 20
-0.453050
 30
0.000000
 40
18.019241
 50
55.859651
 51
80.468310
  0
ARC
  8
daiko
 10
24.314905
 20
-8.340060
 30
0.000000
 40
26.099467
 50
79.440548
 51
100.952120
  0
ARC
  8
daiko
 10
22.119382
 20
0.635180
 30
0.000000
 40
16.876585
 50
99.423038
 51
127.596728
  0
ARC
  8
daiko
 10
16.698414
 20
7.777367
 30
0.000000
 40
7.910568
 50
128.047839
 51
154.092651
  0
ARC
  8
daiko
 10
14.531112
 20
8.958771
 30
0.000000
 40
5.446131
 50
155.310413
 51
211.100047
  0
ARC
  8
daiko
 10
19.634421
 20
12.930784
 30
0.000000
 40
11.892240
 50
214.788635
 51
239.132585
  0
ARC
  8
daiko
 10
23.821928
 20
22.242683
 30
0.000000
 40
22.065327
 50
242.206209
 51
263.994189
  0
ARC
  8
daiko
 10
24.367665
 20
25.085180
 30
0.000000
 40
24.950529
 50
263.430804
 51
283.067451
  0
ARC
  8
daiko
 10
26.538102
 20
17.516289
 30
0.000000
 40
17.091656
 50
281.716627
 51
304.368129
  0
ARC
  8
daiko
 10
31.424423
 20
10.515188
 30
0.000000
 40
8.554771
 50
303.824768
 51
333.310722
  0
ARC
  8
daiko
 10
32.426867
 20
8.736767
 30
0.000000
 40
4.406010
 50
332.820462
 51
32.950411
  0
ARC
  8
daiko
 10
28.866540
 20
6.194032
 30
0.000000
 40
8.778870
 50
34.237600
 51
64.781968
  0
ARC
  8
daiko
 10
24.825226
 20
-1.903852
 30
0.000000
 40
17.828017
 50
64.120128
 51
85.774769
  0
ARC
  8
daiko
 10
24.355164
 20
-5.572076
 30
0.000000
 40
21.521820
 50
85.246261
 51
99.766781
  0
ARC
  8
daiko
 10
22.322329
 20
2.460634
 30
0.000000
 40
13.276156
 50
97.000568
 51
122.884816
  0
ARC
  8
daiko
 10
18.357028
 20
7.651815
 30
0.000000
 40
6.783124
 50
118.561393
 51
153.186942
  0
ARC
  8
daiko
 10
16.350917
 20
8.712657
 30
0.000000
 40
4.514373
 50
153.718300
 51
215.959248
  0
ARC
  8
daiko
 10
20.149788
 20
11.768099
 30
0.000000
 40
9.386628
 50
217.439308
 51
241.679569
  0
ARC
  8
daiko
 10
23.835380
 20
19.361311
 30
0.000000
 40
17.823040
 50
242.829798
 51
264.727464
  0
ARC
  8
daiko
 10
24.347812
 20
21.990786
 30
0.000000
 40
20.490239
 50
263.976281
 51
281.027514
  0
ARC
  8
daiko
 10
25.893821
 20
16.287637
 30
0.000000
 40
14.602907
 50
279.353619
 51
299.590026
  0
ARC
  8
daiko
 10
29.584763
 20
10.472567
 30
0.000000
 40
7.731079
 50
297.083195
 51
330.997654
  0
ARC
  8
daiko
 10
29.102899
 20
12.981784
 30
0.000000
 40
2.515056
 50
340.413701
 51
28.466701
  0
ARC
  8
daiko
 10
27.804273
 20
12.316617
 30
0.000000
 40
3.973869
 50
27.972980
 51
39.469204
  0
ARC
  8
daiko
 10
28.449966
 20
13.210626
 30
0.000000
 40
3.206924
 50
313.088015
 51
340.472308
  0
ARC
  8
daiko
 10
26.126562
 20
15.640099
 30
0.000000
 40
6.568452
 50
287.998336
 51
313.412244
  0
ARC
  8
daiko
 10
24.463071
 20
19.519531
 30
0.000000
 40
10.778868
 50
268.864009
 51
290.036675
  0
ARC
  8
daiko
 10
24.211466
 20
20.123758
 30
0.000000
 40
11.381039
 50
247.520128
 51
270.190846
  0
ARC
  8
daiko
 10
20.981901
 20
13.392083
 30
0.000000
 40
3.939436
 50
213.538109
 51
252.505881
  0
ARC
  8
daiko
 10
19.753381
 20
12.988403
 30
0.000000
 40
2.714081
 50
168.604548
 51
220.782953
  0
ARC
  8
daiko
 10
19.748212
 20
12.988940
 30
0.000000
 40
2.708908
 50
135.044230
 51
168.594080
  0
ARC
  8
daiko
 10
33.619581
 20
9.210892
 30
0.000000
 40
5.973766
 50
357.527782
 51
32.683858
  0
ARC
  8
daiko
 10
30.913458
 20
7.357058
 30
0.000000
 40
9.253016
 50
33.296816
 51
59.895787
  0
ARC
  8
daiko
 10
25.932443
 20
-0.650305
 30
0.000000
 40
18.680947
 50
58.997526
 51
78.379233
  0
ARC
  8
daiko
 10
24.314183
 20
-7.901514
 30
0.000000
 40
26.109790
 50
78.106121
 51
98.140591
  0
ARC
  8
daiko
 10
23.447486
 20
-2.967581
 30
0.000000
 40
21.103448
 50
97.708072
 51
113.676301
  0
ARC
  8
daiko
 10
20.433258
 20
3.855321
 30
0.000000
 40
13.644433
 50
113.589584
 51
132.343234
  0
ARC
  8
daiko
 10
15.418233
 20
9.177171
 30
0.000000
 40
6.334135
 50
131.238884
 51
181.241903
  0
ARC
  8
daiko
 10
29.313042
 20
25.468628
 30
0.000000
 40
0.422681
 50
62.609672
 51
117.390328
  0
ARC
  8
daiko
 10
29.313042
 20
25.614265
 30
0.000000
 40
0.549485
 50
62.609672
 51
117.390328
  0
ARC
  8
daiko
 10
15.561010
 20
28.047330
 30
0.000000
 40
0.422621
 50
302.605478
 51
357.394522
  0
ARC
  8
daiko
 10
15.716574
 20
27.957525
 30
0.000000
 40
0.422621
 50
302.605478
 51
357.394522
  0
ARC
  8
daiko
 10
12.601562
 20
25.988278
 30
0.000000
 40
0.120095
 50
170.785963
 51
309.203285
  0
ARC
  8
daiko
 10
12.736642
 20
25.979886
 30
0.000000
 40
0.199332
 50
216.970119
 51
298.919367
  0
ARC
  8
daiko
 10
21.461193
 20
25.156664
 30
0.000000
 40
0.422621
 50
122.605478
 51
177.394522
  0
ARC
  8
daiko
 10
21.783550
 20
26.317721
 30
0.000000
 40
0.422621
 50
302.605478
 51
357.394522
  0
ARC
  8
daiko
 10
34.553466
 20
20.519217
 30
0.000000
 40
0.256429
 50
232.685845
 51
328.443299
  0
ARC
  8
daiko
 10
34.606266
 20
20.587689
 30
0.000000
 40
0.152129
 50
223.134968
 51
0.538942
  0
ARC
  8
daiko
 10
34.444045
 20
20.581281
 30
0.000000
 40
0.382381
 50
326.873093
 51
0.152931
  0
ARC
  8
daiko
 10
35.524294
 20
22.490430
 30
0.000000
 40
0.637942
 50
322.861799
 51
358.229623
  0
ARC
  8
daiko
 10
35.275935
 20
22.687947
 30
0.000000
 40
0.955414
 50
299.644569
 51
322.045182
  0
ARC
  8
daiko
 10
26.736777
 20
31.050113
 30
0.000000
 40
0.135222
 50
61.992953
 51
117.506650
  0
ARC
  8
daiko
 10
24.321278
 20
4.521199
 30
0.000000
 40
15.475688
 50
100.758553
 51
112.793305
  0
ARC
  8
daiko
 10
24.321408
 20
4.520630
 30
0.000000
 40
15.476272
 50
83.584303
 51
100.758630
  0
ARC
  8
daiko
 10
24.321555
 20
4.521589
 30
0.000000
 40
15.475303
 50
66.750244
 51
83.584448
  0
ARC
  8
daiko
 10
31.500577
 20
17.741332
 30
0.000000
 40
1.231410
 50
66.046420
 51
124.853517
  0
ARC
  8
daiko
 10
30.601106
 20
19.138744
 30
0.000000
 40
0.433596
 50
246.804219
 51
296.836297
  0
ARC
  8
daiko
 10
18.158614
 20
19.186543
 30
0.000000
 40
0.432257
 50
243.018736
 51
289.288532
  0
ARC
  8
daiko
 10
14.700635
 20
13.932624
 30
0.000000
 40
5.860451
 50
56.178560
 51
69.150061
  0
ARC
  8
daiko
 10
23.466345
 20
6.129091
 30
0.000000
 40
15.290747
 50
99.742286
 51
115.280989
  0
ARC
  8
daiko
 10
24.341473
 20
1.306176
 30
0.000000
 40
20.192250
 50
86.035706
 51
99.873917
  0
ARC
  8
daiko
 10
24.341473
 20
1.306176
 30
0.000000
 40
20.192250
 50
79.474663
 51
86.035706
  0
ARC
  8
daiko
 10
24.329714
 20
0.693209
 30
0.000000
 40
21.018297
 50
79.860199
 51
92.219375
  0
ARC
  8
daiko
 10
24.142589
 20
2.252578
 30
0.000000
 40
19.453264
 50
91.846504
 51
104.021913
  0
ARC
  8
daiko
 10
21.663996
 20
11.454430
 30
0.000000
 40
9.926599
 50
103.010646
 51
117.962268
  0
ARC
  8
daiko
 10
24.399816
 20
1.415557
 30
0.000000
 40
20.471741
 50
79.785927
 51
93.226631
  0
ARC
  8
daiko
 10
24.026440
 20
2.918310
 30
0.000000
 40
18.888168
 50
94.828104
 51
108.672299
  0
ARC
  8
daiko
 10
32.257630
 20
14.707945
 30
0.000000
 40
4.444894
 50
358.181993
 51
29.330391
  0
ARC
  8
daiko
 10
32.247461
 20
14.529908
 30
0.000000
 40
4.452980
 50
0.476386
 51
29.248332
  0
ARC
  8
daiko
 10
32.217848
 20
14.293417
 30
0.000000
 40
4.484654
 50
3.460886
 51
29.196603
  0
ARC
  8
daiko
 10
16.247074
 20
14.659500
 30
0.000000
 40
4.297953
 50
161.248432
 51
181.334861
  0
ARC
  8
daiko
 10
8.528815
 20
22.610763
 30
0.000000
 40
2.613756
 50
219.641023
 51
258.515424
  0
ARC
  8
daiko
 10
11.399616
 20
24.296223
 30
0.000000
 40
2.514259
 50
219.694218
 51
258.336471
  0
ARC
  8
daiko
 10
10.535644
 20
18.627281
 30
0.000000
 40
3.226264
 50
49.595055
 51
83.670568
  0
ARC
  8
daiko
 10
6.175703
 20
14.075591
 30
0.000000
 40
9.525523
 50
30.454787
 51
47.370892
  0
ARC
  8
daiko
 10
5.225524
 20
12.533882
 30
0.000000
 40
11.158257
 50
21.552244
 51
34.810196
  0
ARC
  8
daiko
 10
0.274757
 20
9.718063
 30
0.000000
 40
13.478724
 50
23.409041
 51
40.096138
  0
ARC
  8
daiko
 10
6.248588
 20
14.463171
 30
0.000000
 40
5.856810
 50
42.226698
 51
72.513944
  0
ARC
  8
daiko
 10
2.325693
 20
29.312069
 30
0.000000
 40
0.702566
 50
304.472634
 51
11.188138
  0
ARC
  8
daiko
 10
2.250388
 20
29.333058
 30
0.000000
 40
0.702566
 50
304.472634
 51
11.188138
  0
ARC
  8
daiko
 10
0.341136
 20
27.786329
 30
0.000000
 40
0.315651
 50
192.731539
 51
302.138351
  0
ARC
  8
daiko
 10
0.398509
 20
27.821286
 30
0.000000
 40
0.372847
 50
230.443787
 51
299.897895
  0
ARC
  8
daiko
 10
0.123755
 20
28.033489
 30
0.000000
 40
0.149107
 50
129.187244
 51
200.227501
  0
ARC
  8
daiko
 10
2.999315
 20
29.742439
 30
0.000000
 40
0.101738
 50
61.495191
 51
160.250126
  0
ARC
  8
daiko
 10
2.927621
 20
29.573048
 30
0.000000
 40
0.285367
 50
40.584206
 51
65.078530
  0
ARC
  8
daiko
 10
3.603015
 20
29.702980
 30
0.000000
 40
0.703340
 50
173.973928
 51
199.398328
  0
ARC
  8
daiko
 10
3.034623
 20
29.684718
 30
0.000000
 40
0.062076
 50
35.527307
 51
186.218010
  0
ARC
  8
daiko
 10
48.400166
 20
3.340927
 30
0.000000
 40
0.279868
 50
343.917397
 51
90.533157
  0
ARC
  8
daiko
 10
48.429391
 20
3.354083
 30
0.000000
 40
0.167524
 50
345.290207
 51
94.998683
  0
ARC
  8
daiko
 10
47.572180
 20
3.446284
 30
0.000000
 40
1.112043
 50
300.795759
 51
350.534161
  0
ARC
  8
daiko
 10
47.491168
 20
3.517326
 30
0.000000
 40
1.119335
 50
300.913443
 51
349.406372
  0
ARC
  8
daiko
 10
45.741501
 20
1.375149
 30
0.000000
 40
0.115005
 50
183.955008
 51
285.162626
  0
ARC
  8
daiko
 10
45.822171
 20
1.389774
 30
0.000000
 40
0.193979
 50
202.175336
 51
289.976628
  0
ARC
  8
daiko
 10
45.520513
 20
1.674524
 30
0.000000
 40
0.162192
 50
338.348025
 51
92.470468
  0
ARC
  8
daiko
 10
46.352810
 20
1.364415
 30
0.000000
 40
0.726046
 50
159.836759
 51
179.778916
  0
ARC
  8
daiko
 10
45.728898
 20
1.591852
 30
0.000000
 40
0.330473
 50
277.420959
 51
300.441923
  0
ARC
  8
daiko
 10
45.642501
 20
1.940777
 30
0.000000
 40
0.773453
 50
288.540570
 51
297.741010
  0
ARC
  8
daiko
 10
39.594449
 20
4.496434
 30
0.000000
 40
2.460438
 50
218.831520
 51
261.191699
  0
ARC
  8
daiko
 10
33.932625
 20
-0.086816
 30
0.000000
 40
4.823972
 50
39.071123
 51
54.334039
  0
ARC
  8
daiko
 10
42.516788
 20
6.194562
 30
0.000000
 40
2.475404
 50
224.006586
 51
261.115991
  0
ARC
  8
daiko
 10
42.468921
 20
6.192972
 30
0.000000
 40
2.372248
 50
227.211881
 51
261.112129
  0
ARC
  8
daiko
 10
37.534242
 20
2.260669
 30
0.000000
 40
3.893035
 50
34.662466
 51
72.711429
  0
ARC
  8
daiko
 10
37.383877
 20
2.072269
 30
0.000000
 40
4.210613
 50
34.415200
 51
71.204752
  0
LINE
  8
daiko
 10
36.366730
 20
23.514620
 30
0.000000
 11
36.366730
 21
29.400521
 31
0.000000
  0
LINE
  8
daiko
 10
36.366730
 20
29.400521
 30
0.000000
 11
35.000832
 21
30.189037
 31
0.000000
  0
LINE
  8
daiko
 10
35.000832
 20
30.189037
 30
0.000000
 11
34.607138
 21
29.961763
 31
0.000000
  0
LINE
  8
daiko
 10
35.059168
 20
29.700811
 30
0.000000
 11
34.538859
 21
30.001179
 31
0.000000
  0
LINE
  8
daiko
 10
35.059168
 20
30.127454
 30
0.000000
 11
35.059168
 21
29.700811
 31
0.000000
  0
LINE
  8
daiko
 10
34.538859
 20
30.001179
 30
0.000000
 11
34.538859
 21
30.455728
 31
0.000000
  0
LINE
  8
daiko
 10
34.538859
 20
30.455728
 30
0.000000
 11
33.780487
 21
30.893527
 31
0.000000
  0
LINE
  8
daiko
 10
33.780487
 20
25.229404
 30
0.000000
 11
33.780487
 21
31.230295
 31
0.000000
  0
LINE
  8
daiko
 10
33.780487
 20
31.230295
 30
0.000000
 11
32.047481
 21
32.230739
 31
0.000000
  0
LINE
  8
daiko
 10
31.964988
 20
32.230739
 30
0.000000
 11
31.286753
 21
31.839202
 31
0.000000
  0
LINE
  8
daiko
 10
32.064571
 20
32.192966
 30
0.000000
 11
32.064571
 21
26.354700
 31
0.000000
  0
LINE
  8
daiko
 10
31.286753
 20
31.839202
 30
0.000000
 11
30.975626
 21
32.018812
 31
0.000000
  0
LINE
  8
daiko
 10
30.975626
 20
32.018812
 30
0.000000
 11
30.781140
 21
31.906538
 31
0.000000
  0
LINE
  8
daiko
 10
30.081224
 20
32.310591
 30
0.000000
 11
28.626403
 21
31.722521
 31
0.000000
  0
LINE
  8
daiko
 10
30.975620
 20
31.794267
 30
0.000000
 11
30.081224
 21
32.310591
 31
0.000000
  0
LINE
  8
daiko
 10
31.286753
 20
31.811296
 30
0.000000
 11
31.286753
 21
30.621187
 31
0.000000
  0
LINE
  8
daiko
 10
30.133167
 20
32.280605
 30
0.000000
 11
30.133167
 21
26.863529
 31
0.000000
  0
LINE
  8
daiko
 10
30.027511
 20
32.258034
 30
0.000000
 11
30.027511
 21
26.868865
 31
0.000000
  0
LINE
  8
daiko
 10
28.610001
 20
26.295878
 30
0.000000
 11
28.610001
 21
31.685047
 31
0.000000
  0
LINE
  8
daiko
 10
28.426396
 20
26.206939
 30
0.000000
 11
28.426396
 21
31.596109
 31
0.000000
  0
LINE
  8
daiko
 10
28.273386
 20
31.732326
 30
0.000000
 11
28.273386
 21
31.507778
 31
0.000000
  0
LINE
  8
daiko
 10
28.468556
 20
31.647564
 30
0.000000
 11
28.273386
 21
31.760233
 31
0.000000
  0
LINE
  8
daiko
 10
28.273386
 20
31.760233
 30
0.000000
 11
27.767805
 21
31.468367
 31
0.000000
  0
LINE
  8
daiko
 10
27.767805
 20
25.602194
 30
0.000000
 11
27.767805
 21
31.468367
 31
0.000000
  0
LINE
  8
daiko
 10
27.767805
 20
31.379342
 30
0.000000
 11
27.006402
 21
30.939793
 31
0.000000
  0
LINE
  8
daiko
 10
27.554749
 20
31.256348
 30
0.000000
 11
23.028536
 21
33.869275
 31
0.000000
  0
LINE
  8
daiko
 10
21.719599
 20
33.113642
 30
0.000000
 11
23.028536
 21
33.869275
 31
0.000000
  0
LINE
  8
daiko
 10
23.100225
 20
33.641198
 30
0.000000
 11
23.100225
 21
21.919755
 31
0.000000
  0
LINE
  8
daiko
 10
16.028767
 20
29.925234
 30
0.000000
 11
12.483016
 21
27.878316
 31
0.000000
  0
LINE
  8
daiko
 10
15.983195
 20
29.824508
 30
0.000000
 11
15.983195
 21
28.028118
 31
0.000000
  0
LINE
  8
daiko
 10
16.138758
 20
27.938314
 30
0.000000
 11
16.138758
 21
29.734703
 31
0.000000
  0
LINE
  8
daiko
 10
16.138758
 20
29.712252
 30
0.000000
 11
22.789098
 21
33.446279
 31
0.000000
  0
LINE
  8
daiko
 10
22.789098
 20
33.446279
 30
0.000000
 11
23.100225
 21
33.297438
 31
0.000000
  0
LINE
  8
daiko
 10
21.719599
 20
33.113642
 30
0.000000
 11
21.719599
 21
32.853117
 31
0.000000
  0
LINE
  8
daiko
 10
15.788741
 20
27.691314
 30
0.000000
 11
12.677471
 21
25.895216
 31
0.000000
  0
LINE
  8
daiko
 10
12.833034
 20
25.805411
 30
0.000000
 11
15.944304
 21
27.601509
 31
0.000000
  0
LINE
  8
daiko
 10
12.483016
 20
26.007508
 30
0.000000
 11
12.483016
 21
27.878316
 31
0.000000
  0
LINE
  8
daiko
 10
12.483016
 20
27.601837
 30
0.000000
 11
12.269117
 21
27.478355
 31
0.000000
  0
LINE
  8
daiko
 10
12.269117
 20
27.478355
 30
0.000000
 11
12.269117
 21
21.434783
 31
0.000000
  0
LINE
  8
daiko
 10
36.620903
 20
15.554454
 30
0.000000
 11
36.620903
 21
26.022568
 31
0.000000
  0
LINE
  8
daiko
 10
36.620903
 20
26.022568
 30
0.000000
 11
36.366730
 21
26.169299
 31
0.000000
  0
LINE
  8
daiko
 10
22.205735
 20
26.298509
 30
0.000000
 11
22.205735
 21
33.079881
 31
0.000000
  0
LINE
  8
daiko
 10
21.233463
 20
25.512680
 30
0.000000
 11
22.011280
 21
25.961705
 31
0.000000
  0
LINE
  8
daiko
 10
21.039008
 20
21.566638
 30
0.000000
 11
21.039008
 21
25.175875
 31
0.000000
  0
LINE
  8
daiko
 10
22.789098
 20
21.919755
 30
0.000000
 11
22.789098
 21
33.446279
 31
0.000000
  0
LINE
  8
daiko
 10
23.596275
 20
28.275210
 30
0.000000
 11
26.639294
 21
26.518512
 31
0.000000
  0
LINE
  8
daiko
 10
23.596275
 20
32.766184
 30
0.000000
 11
23.596275
 21
28.275210
 31
0.000000
  0
LINE
  8
daiko
 10
26.552996
 20
31.070531
 30
0.000000
 11
23.605997
 21
32.771797
 31
0.000000
  0
LINE
  8
daiko
 10
26.639294
 20
24.794292
 30
0.000000
 11
26.639294
 21
31.104111
 31
0.000000
  0
LINE
  8
daiko
 10
34.398023
 20
20.315273
 30
0.000000
 11
26.639294
 21
24.794292
 31
0.000000
  0
LINE
  8
daiko
 10
26.833748
 20
24.906566
 30
0.000000
 11
26.833748
 21
31.104111
 31
0.000000
  0
LINE
  8
daiko
 10
34.495250
 20
20.483676
 30
0.000000
 11
26.833748
 21
24.906566
 31
0.000000
  0
LINE
  8
daiko
 10
33.019753
 20
21.534817
 30
0.000000
 11
36.325477
 21
23.443171
 31
0.000000
  0
LINE
  8
daiko
 10
34.563995
 20
21.172951
 30
0.000000
 11
35.730721
 21
21.846488
 31
0.000000
  0
LINE
  8
daiko
 10
36.161932
 20
22.470722
 30
0.000000
 11
36.161932
 21
23.348758
 31
0.000000
  0
LINE
  8
daiko
 10
34.827205
 20
20.595986
 30
0.000000
 11
34.827205
 21
21.324899
 31
0.000000
  0
LINE
  8
daiko
 10
31.286753
 20
27.163137
 30
0.000000
 11
31.286753
 21
25.973029
 31
0.000000
  0
LINE
  8
daiko
 10
35.000832
 20
24.188146
 30
0.000000
 11
32.876561
 21
22.961830
 31
0.000000
  0
LINE
  8
daiko
 10
32.876561
 20
22.961830
 30
0.000000
 11
32.332089
 21
23.276147
 31
0.000000
  0
LINE
  8
daiko
 10
32.332089
 20
23.276147
 30
0.000000
 11
34.456359
 21
24.502463
 31
0.000000
  0
LINE
  8
daiko
 10
36.342567
 20
23.548297
 30
0.000000
 11
35.059168
 21
24.289187
 31
0.000000
  0
LINE
  8
daiko
 10
33.780487
 20
25.229404
 30
0.000000
 11
32.006234
 21
26.253658
 31
0.000000
  0
LINE
  8
daiko
 10
28.610001
 20
26.295878
 30
0.000000
 11
30.027511
 21
26.868865
 31
0.000000
  0
LINE
  8
daiko
 10
30.133167
 20
26.863529
 30
0.000000
 11
31.033963
 21
26.343510
 31
0.000000
  0
LINE
  8
daiko
 10
31.033963
 20
26.343510
 30
0.000000
 11
31.033963
 21
26.118962
 31
0.000000
  0
LINE
  8
daiko
 10
28.273386
 20
25.759341
 30
0.000000
 11
27.826141
 21
25.501152
 31
0.000000
  0
LINE
  8
daiko
 10
28.273386
 20
25.894060
 30
0.000000
 11
27.767805
 21
25.602194
 31
0.000000
  0
LINE
  8
daiko
 10
28.273386
 20
25.894060
 30
0.000000
 11
28.273386
 21
26.118608
 31
0.000000
  0
LINE
  8
daiko
 10
27.903247
 20
25.456640
 30
0.000000
 11
27.047648
 21
24.962713
 31
0.000000
  0
LINE
  8
daiko
 10
29.118587
 20
25.843923
 30
0.000000
 11
28.622729
 21
25.557670
 31
0.000000
  0
LINE
  8
daiko
 10
29.935950
 20
25.596582
 30
0.000000
 11
29.507496
 21
25.843923
 31
0.000000
  0
LINE
  8
daiko
 10
30.975626
 20
26.017920
 30
0.000000
 11
30.259046
 21
25.604247
 31
0.000000
  0
LINE
  8
daiko
 10
32.006234
 20
26.253658
 30
0.000000
 11
31.286753
 21
25.838310
 31
0.000000
  0
LINE
  8
daiko
 10
31.286753
 20
25.838310
 30
0.000000
 11
30.975626
 21
26.017920
 31
0.000000
  0
LINE
  8
daiko
 10
28.622729
 20
25.557670
 30
0.000000
 11
28.273386
 21
25.759341
 31
0.000000
  0
LINE
  8
daiko
 10
29.935825
 20
25.596624
 30
0.000000
 11
30.259046
 21
25.604247
 31
0.000000
  0
LINE
  8
daiko
 10
27.903247
 20
25.456640
 30
0.000000
 11
27.826141
 21
25.501152
 31
0.000000
  0
LINE
  8
daiko
 10
27.826141
 20
25.501152
 30
0.000000
 11
27.767805
 21
25.602194
 31
0.000000
  0
LINE
  8
daiko
 10
28.273386
 20
25.759341
 30
0.000000
 11
28.273386
 21
25.894060
 31
0.000000
  0
LINE
  8
daiko
 10
28.622729
 20
25.557670
 30
0.000000
 11
28.622729
 21
25.849573
 31
0.000000
  0
LINE
  8
daiko
 10
28.622729
 20
25.849573
 30
0.000000
 11
28.331722
 21
26.017567
 31
0.000000
  0
LINE
  8
daiko
 10
28.273386
 20
26.118608
 30
0.000000
 11
28.426396
 21
26.206939
 31
0.000000
  0
LINE
  8
daiko
 10
28.426396
 20
26.206939
 30
0.000000
 11
28.610001
 21
26.295878
 31
0.000000
  0
LINE
  8
daiko
 10
29.941600
 20
25.605974
 30
0.000000
 11
29.968707
 21
25.869574
 31
0.000000
  0
LINE
  8
daiko
 10
30.223482
 20
25.875619
 30
0.000000
 11
30.255650
 21
25.609274
 31
0.000000
  0
LINE
  8
daiko
 10
31.033900
 20
26.343524
 30
0.000000
 11
30.223482
 21
25.875619
 31
0.000000
  0
LINE
  8
daiko
 10
30.223482
 20
25.875619
 30
0.000000
 11
29.968707
 21
25.869574
 31
0.000000
  0
LINE
  8
daiko
 10
29.968707
 20
25.869574
 30
0.000000
 11
29.565832
 21
26.102149
 31
0.000000
  0
LINE
  8
daiko
 10
29.060251
 20
26.102149
 30
0.000000
 11
28.622729
 21
25.849573
 31
0.000000
  0
LINE
  8
daiko
 10
28.331722
 20
26.017567
 30
0.000000
 11
28.657321
 21
26.189500
 31
0.000000
  0
LINE
  8
daiko
 10
28.657321
 20
26.189500
 30
0.000000
 11
30.074831
 21
26.762487
 31
0.000000
  0
LINE
  8
daiko
 10
30.074831
 20
26.762487
 30
0.000000
 11
30.917290
 21
26.276146
 31
0.000000
  0
LINE
  8
daiko
 10
16.028767
 20
29.925234
 30
0.000000
 11
16.314148
 21
29.813502
 31
0.000000
  0
LINE
  8
daiko
 10
34.550325
 20
21.160984
 30
0.000000
 11
33.449979
 21
21.783181
 31
0.000000
  0
LINE
  8
daiko
 10
33.780487
 20
25.229404
 30
0.000000
 11
33.488275
 21
25.100524
 31
0.000000
  0
LINE
  8
daiko
 10
33.488275
 20
25.100524
 30
0.000000
 11
34.497403
 21
24.565510
 31
0.000000
  0
LINE
  8
daiko
 10
34.514575
 20
25.030152
 30
0.000000
 11
34.514696
 21
24.603504
 31
0.000000
  0
LINE
  8
daiko
 10
34.514575
 20
25.030152
 30
0.000000
 11
35.059168
 21
24.715830
 31
0.000000
  0
LINE
  8
daiko
 10
35.059168
 20
24.715830
 30
0.000000
 11
35.059168
 21
24.289187
 31
0.000000
  0
LINE
  8
daiko
 10
35.098059
 20
24.423920
 30
0.000000
 11
36.167558
 21
23.806511
 31
0.000000
  0
LINE
  8
daiko
 10
36.167558
 20
23.806511
 30
0.000000
 11
36.167558
 21
26.793009
 31
0.000000
  0
LINE
  8
daiko
 10
36.167558
 20
26.793009
 30
0.000000
 11
35.098059
 21
27.410418
 31
0.000000
  0
LINE
  8
daiko
 10
35.098059
 20
27.410418
 30
0.000000
 11
35.098059
 21
24.423920
 31
0.000000
  0
LINE
  8
daiko
 10
31.286753
 20
27.163137
 30
0.000000
 11
30.247383
 21
27.763152
 31
0.000000
  0
LINE
  8
daiko
 10
30.247383
 20
27.763152
 30
0.000000
 11
30.247383
 21
28.661347
 31
0.000000
  0
LINE
  8
daiko
 10
30.247383
 20
28.661347
 30
0.000000
 11
31.286753
 21
28.061332
 31
0.000000
  0
LINE
  8
daiko
 10
31.286753
 20
28.061332
 30
0.000000
 11
31.286753
 21
29.722992
 31
0.000000
  0
LINE
  8
daiko
 10
31.286753
 20
29.722992
 30
0.000000
 11
30.247383
 21
30.323008
 31
0.000000
  0
LINE
  8
daiko
 10
30.247383
 20
30.323008
 30
0.000000
 11
30.247383
 21
31.221203
 31
0.000000
  0
LINE
  8
daiko
 10
30.247383
 20
31.221203
 30
0.000000
 11
31.286753
 21
30.621187
 31
0.000000
  0
LINE
  8
daiko
 10
31.208972
 20
27.208039
 30
0.000000
 11
31.208972
 21
28.016429
 31
0.000000
  0
LINE
  8
daiko
 10
31.208972
 20
29.767895
 30
0.000000
 11
31.208972
 21
30.576285
 31
0.000000
  0
LINE
  8
daiko
 10
27.102678
 20
30.995372
 30
0.000000
 11
26.799725
 21
31.170049
 31
0.000000
  0
LINE
  8
daiko
 10
26.679000
 20
31.172249
 30
0.000000
 11
26.545333
 21
31.074955
 31
0.000000
  0
LINE
  8
daiko
 10
17.227703
 20
21.017425
 30
0.000000
 11
16.074663
 21
16.814809
 31
0.000000
  0
LINE
  8
daiko
 10
15.970563
 20
16.775848
 30
0.000000
 11
17.169367
 21
21.145264
 31
0.000000
  0
LINE
  8
daiko
 10
14.252551
 20
19.461422
 30
0.000000
 11
17.169367
 21
21.145264
 31
0.000000
  0
LINE
  8
daiko
 10
14.206260
 20
19.292701
 30
0.000000
 11
14.252551
 21
19.461422
 31
0.000000
  0
LINE
  8
daiko
 10
28.029998
 20
21.158675
 30
0.000000
 11
36.132732
 21
16.481067
 31
0.000000
  0
LINE
  8
daiko
 10
28.029998
 20
21.383224
 30
0.000000
 11
36.132732
 21
16.705615
 31
0.000000
  0
LINE
  8
daiko
 10
36.132732
 20
16.885254
 30
0.000000
 11
28.029998
 21
21.562863
 31
0.000000
  0
LINE
  8
daiko
 10
17.169367
 20
21.145264
 30
0.000000
 11
17.305497
 21
21.066677
 31
0.000000
  0
LINE
  8
daiko
 10
17.227703
 20
21.021768
 30
0.000000
 11
17.981621
 21
21.429296
 31
0.000000
  0
LINE
  8
daiko
 10
17.192518
 20
20.889181
 30
0.000000
 11
17.858139
 21
21.222941
 31
0.000000
  0
LINE
  8
daiko
 10
17.979298
 20
20.812302
 30
0.000000
 11
17.981621
 21
21.429296
 31
0.000000
  0
LINE
  8
daiko
 10
17.858152
 20
21.219080
 30
0.000000
 11
17.860201
 21
20.623318
 31
0.000000
  0
LINE
  8
daiko
 10
17.981621
 20
21.429296
 30
0.000000
 11
18.646706
 21
21.024147
 31
0.000000
  0
LINE
  8
daiko
 10
22.479996
 20
21.741314
 30
0.000000
 11
22.789098
 21
21.919755
 31
0.000000
  0
LINE
  8
daiko
 10
22.789098
 20
21.919755
 30
0.000000
 11
23.119670
 21
21.908529
 31
0.000000
  0
LINE
  8
daiko
 10
23.119670
 20
21.908529
 30
0.000000
 11
22.691845
 21
21.684002
 31
0.000000
  0
LINE
  8
daiko
 10
22.691845
 20
21.684002
 30
0.000000
 11
22.436687
 21
21.739456
 31
0.000000
  0
LINE
  8
daiko
 10
33.993973
 20
16.219695
 30
0.000000
 11
32.245550
 21
18.726327
 31
0.000000
  0
LINE
  8
daiko
 10
33.515859
 20
16.436634
 30
0.000000
 11
31.983475
 21
18.626557
 31
0.000000
  0
LINE
  8
daiko
 10
30.642470
 20
18.540525
 30
0.000000
 11
30.659925
 21
17.422566
 31
0.000000
  0
LINE
  8
daiko
 10
18.149274
 20
18.674197
 30
0.000000
 11
18.149274
 21
17.472932
 31
0.000000
  0
LINE
  8
daiko
 10
6.516075
 20
20.943251
 30
0.000000
 11
0.630695
 21
27.524810
 31
0.000000
  0
LINE
  8
daiko
 10
3.144343
 20
29.758698
 30
0.000000
 11
9.464984
 21
22.690391
 31
0.000000
  0
LINE
  8
daiko
 10
9.432890
 20
22.627093
 30
0.000000
 11
3.111344
 21
29.696412
 31
0.000000
  0
LINE
  8
daiko
 10
0.509051
 20
27.519047
 30
0.000000
 11
2.648049
 21
28.753864
 31
0.000000
  0
LINE
  8
daiko
 10
0.584356
 20
27.498059
 30
0.000000
 11
2.723354
 21
28.732876
 31
0.000000
  0
LINE
  8
daiko
 10
2.946356
 20
29.832901
 30
0.000000
 11
0.029541
 21
28.149060
 31
0.000000
  0
LINE
  8
daiko
 10
3.014907
 20
29.448389
 30
0.000000
 11
2.972912
 21
29.677994
 31
0.000000
  0
LINE
  8
daiko
 10
0.033246
 20
27.716765
 30
0.000000
 11
-0.016156
 21
27.981936
 31
0.000000
  0
LINE
  8
daiko
 10
46.002525
 20
1.256224
 30
0.000000
 11
48.141523
 21
2.491041
 31
0.000000
  0
LINE
  8
daiko
 10
48.066218
 20
2.556998
 30
0.000000
 11
45.896337
 21
1.306938
 31
0.000000
  0
LINE
  8
daiko
 10
48.423047
 20
3.619859
 30
0.000000
 11
42.102406
 21
3.849208
 31
0.000000
  0
LINE
  8
daiko
 10
42.134500
 20
3.748855
 30
0.000000
 11
48.414795
 21
3.520970
 31
0.000000
  0
LINE
  8
daiko
 10
45.513522
 20
1.836564
 30
0.000000
 11
39.217684
 21
2.065014
 31
0.000000
  0
LINE
  8
daiko
 10
45.735412
 20
1.865927
 30
0.000000
 11
48.429391
 21
3.354083
 31
0.000000
  0
LINE
  8
daiko
 10
31.854315
 20
18.754538
 30
0.000000
 11
31.884083
 21
17.053170
 31
0.000000
  0
ENDBLK
  0
ENDSEC
  0
SECTION
  2
ENTITIES
  0
INSERT
  8
daiko
  2
TOP
 10
0.025352
 20
-0.134651
 30
0.000000
  0
TEXT
  8
daiko
 10
0.000000
 20
-11.000000
 30
0.000000
 40
3.000000
  1
DDL-5004WW
  7
BIGFONT
  0
TEXT
  8
daiko
 10
0.000000
 20
-15.000000
 30
0.000000
 40
3.000000
  1
LEDﾀﾞｳﾝﾗｲﾄ
  7
BIGFONT
  0
TEXT
  8
daiko
 10
0.000000
 20
-19.000000
 30
0.000000
 40
3.000000
  1
LED8.5W 
  7
BIGFONT
  0
TEXT
  8
daiko
 10
0.000000
 20
-23.000000
 30
0.000000
 40
3.000000
  1
消費電力 8.5W
  7
BIGFONT
  0
TEXT
  8
daiko
 10
0.000000
 20
-27.000000
 30
0.000000
 40
3.000000
  1
光束値 780lm
  7
BIGFONT
  0
TEXT
  8
daiko
 10
0.000000
 20
-31.000000
 30
0.000000
 40
3.000000
  1
色温度 5000K Ra83
  7
BIGFONT
  0
TEXT
  8
daiko
 10
0.000000
 20
-35.000000
 30
0.000000
 40
3.000000
  1
施工寸法 φ100 H=80mm
  7
BIGFONT
  0
TEXT
  8
daiko
 10
0.000000
 20
-39.000000
 30
0.000000
 40
3.000000
  1
枠／白塗装
  7
BIGFONT
  0
ENDSEC
  0
EOF
