  0
SECTION
  2
HEADER
  9
$ACADVER
  1
AC1009
  9
$INSBASE
 10
0.0
 20
0.0
 30
0.0
  9
$EXTMIN
 10
0.0
 20
-11.0
 30
0.0
  9
$EXTMAX
 10
49.258701185103781
 20
25.178595494555001
 30
0.0
  9
$LIMMIN
 10
0.0
 20
0.0
  9
$LIMMAX
 10
12.0
 20
9.0
  9
$ORTHOMODE
 70
     0
  9
$REGENMODE
 70
     1
  9
$FILLMODE
 70
     1
  9
$QTEXTMODE
 70
     0
  9
$MIRRTEXT
 70
     0
  9
$DRAGMODE
 70
     2
  9
$LTSCALE
 40
1.0
  9
$OSMODE
 70
    37
  9
$ATTMODE
 70
     1
  9
$TEXTSIZE
 40
3.5
  9
$TRACEWID
 40
0.05
  9
$TEXTSTYLE
  7
STANDARD
  9
$CLAYER
  8
0
  9
$CELTYPE
  6
CONTINUOUS
  9
$CECOLOR
 62
   256
  9
$DIMSCALE
 40
1.0
  9
$DIMASZ
 40
0.18
  9
$DIMEXO
 40
0.0625
  9
$DIMDLI
 40
0.38
  9
$DIMRND
 40
0.0
  9
$DIMDLE
 40
0.0
  9
$DIMEXE
 40
0.18
  9
$DIMTP
 40
0.0
  9
$DIMTM
 40
0.0
  9
$DIMTXT
 40
0.18
  9
$DIMCEN
 40
0.09
  9
$DIMTSZ
 40
0.0
  9
$DIMTOL
 70
     0
  9
$DIMLIM
 70
     0
  9
$DIMTIH
 70
     1
  9
$DIMTOH
 70
     1
  9
$DIMSE1
 70
     0
  9
$DIMSE2
 70
     0
  9
$DIMTAD
 70
     0
  9
$DIMZIN
 70
     0
  9
$DIMBLK
  1

  9
$DIMASO
 70
     1
  9
$DIMSHO
 70
     1
  9
$DIMPOST
  1

  9
$DIMAPOST
  1

  9
$DIMALT
 70
     0
  9
$DIMALTD
 70
     2
  9
$DIMALTF
 40
25.399999999999999
  9
$DIMLFAC
 40
1.0
  9
$DIMTOFL
 70
     0
  9
$DIMTVP
 40
0.0
  9
$DIMTIX
 70
     0
  9
$DIMSOXD
 70
     0
  9
$DIMSAH
 70
     0
  9
$DIMBLK1
  1

  9
$DIMBLK2
  1

  9
$DIMSTYLE
  2
STANDARD
  9
$DIMCLRD
 70
     0
  9
$DIMCLRE
 70
     0
  9
$DIMCLRT
 70
     0
  9
$DIMTFAC
 40
1.0
  9
$DIMGAP
 40
0.09
  9
$LUNITS
 70
     2
  9
$LUPREC
 70
     4
  9
$SKETCHINC
 40
0.1
  9
$FILLETRAD
 40
0.0
  9
$AUNITS
 70
     0
  9
$AUPREC
 70
     0
  9
$MENU
  1
.
  9
$ELEVATION
 40
0.0
  9
$PELEVATION
 40
0.0
  9
$THICKNESS
 40
0.0
  9
$LIMCHECK
 70
     0
  9
$BLIPMODE
 70
     0
  9
$CHAMFERA
 40
0.0
  9
$CHAMFERB
 40
0.0
  9
$SKPOLY
 70
     0
  9
$TDCREATE
 40
2457864.4945447799
  9
$TDUPDATE
 40
2457864.5041256938
  9
$TDINDWG
 40
0.0000355903
  9
$TDUSRTIMER
 40
0.0000355903
  9
$USRTIMER
 70
     1
  9
$ANGBASE
 50
0.0
  9
$ANGDIR
 70
     0
  9
$PDMODE
 70
     0
  9
$PDSIZE
 40
0.0
  9
$PLINEWID
 40
0.0
  9
$COORDS
 70
     1
  9
$SPLFRAME
 70
     0
  9
$SPLINETYPE
 70
     6
  9
$SPLINESEGS
 70
     8
  9
$ATTDIA
 70
     0
  9
$ATTREQ
 70
     1
  9
$HANDLING
 70
     1
  9
$HANDSEED
  5
AD
  9
$SURFTAB1
 70
     6
  9
$SURFTAB2
 70
     6
  9
$SURFTYPE
 70
     6
  9
$SURFU
 70
     6
  9
$SURFV
 70
     6
  9
$UCSNAME
  2

  9
$UCSORG
 10
0.0
 20
0.0
 30
0.0
  9
$UCSXDIR
 10
1.0
 20
0.0
 30
0.0
  9
$UCSYDIR
 10
0.0
 20
1.0
 30
0.0
  9
$PUCSNAME
  2

  9
$PUCSORG
 10
0.0
 20
0.0
 30
0.0
  9
$PUCSXDIR
 10
1.0
 20
0.0
 30
0.0
  9
$PUCSYDIR
 10
0.0
 20
1.0
 30
0.0
  9
$USERI1
 70
     0
  9
$USERI2
 70
     0
  9
$USERI3
 70
     0
  9
$USERI4
 70
     0
  9
$USERI5
 70
     0
  9
$USERR1
 40
0.0
  9
$USERR2
 40
0.0
  9
$USERR3
 40
0.0
  9
$USERR4
 40
0.0
  9
$USERR5
 40
0.0
  9
$WORLDVIEW
 70
     1
  9
$SHADEDGE
 70
     3
  9
$SHADEDIF
 70
    70
  9
$TILEMODE
 70
     1
  9
$MAXACTVP
 70
    64
  9
$PLIMCHECK
 70
     0
  9
$PEXTMIN
 10
1.0000000000000000E+020
 20
1.0000000000000000E+020
 30
1.0000000000000000E+020
  9
$PEXTMAX
 10
-1.0000000000000000E+020
 20
-1.0000000000000000E+020
 30
-1.0000000000000000E+020
  9
$PLIMMIN
 10
0.0
 20
0.0
  9
$PLIMMAX
 10
12.0
 20
9.0
  9
$UNITMODE
 70
     0
  9
$VISRETAIN
 70
     1
  9
$PLINEGEN
 70
     0
  9
$PSLTSCALE
 70
     1
  0
ENDSEC
  0
SECTION
  2
TABLES
  0
TABLE
  2
VPORT
 70
     2
  0
VPORT
  2
*ACTIVE
 70
     0
 10
0.0
 20
0.0
 11
1.0
 21
1.0
 12
24.628170491040819
 22
7.0899864694363091
 13
0.0
 23
0.0
 14
1.0
 24
1.0
 15
0.0
 25
0.0
 16
0.0
 26
0.0
 36
1.0
 17
0.0
 27
0.0
 37
0.0
 40
36.651646966488457
 41
1.519396551724137
 42
50.0
 43
0.0
 44
0.0
 50
0.0
 51
0.0
 71
     0
 72
   100
 73
     1
 74
     1
 75
     0
 76
     0
 77
     0
 78
     0
  0
ENDTAB
  0
TABLE
  2
LTYPE
 70
     1
  0
LTYPE
  2
CONTINUOUS
 70
     0
  3
Solid line
 72
    65
 73
     0
 40
0.0
  0
ENDTAB
  0
TABLE
  2
LAYER
 70
     2
  0
LAYER
  2
0
 70
     0
 62
     7
  6
CONTINUOUS
  0
LAYER
  2
DAIKO
 70
     0
 62
     7
  6
CONTINUOUS
  0
ENDTAB
  0
TABLE
  2
STYLE
 70
     2
  0
STYLE
  2
STANDARD
 70
     0
 40
0.0
 41
1.0
 50
0.0
 71
     0
 42
3.5
  3
txt.shx
  4
bigfont.shx
  0
STYLE
  2
BIGFONT
 70
     0
 40
1.0
 41
1.0
 50
0.0
 71
     0
 42
0.0
  3
txt
  4
bigfont
  0
ENDTAB
  0
TABLE
  2
VIEW
 70
     0
  0
ENDTAB
  0
TABLE
  2
UCS
 70
     0
  0
ENDTAB
  0
TABLE
  2
APPID
 70
     1
  0
APPID
  2
ACAD
 70
     0
  0
ENDTAB
  0
TABLE
  2
DIMSTYLE
 70
     1
  0
DIMSTYLE
  2
STANDARD
 70
     0
  3

  4

  5

  6

  7

 40
1.0
 41
0.18
 42
0.0625
 43
0.38
 44
0.18
 45
0.0
 46
0.0
 47
0.0
 48
0.0
140
0.18
141
0.09
142
0.0
143
25.399999999999999
144
1.0
145
0.0
146
1.0
147
0.09
 71
     0
 72
     0
 73
     1
 74
     1
 75
     0
 76
     0
 77
     0
 78
     0
170
     0
171
     2
172
     0
173
     0
174
     0
175
     0
176
     0
177
     0
178
     0
  0
ENDTAB
  0
ENDSEC
  0
SECTION
  2
BLOCKS
  0
BLOCK
  8
0
  2
$MODEL_SPACE
 70
     0
 10
0.0
 20
0.0
 30
0.0
  3
$MODEL_SPACE
  1

  0
ENDBLK
  5
24
  8
0
  0
BLOCK
 67
     1
  8
0
  2
$PAPER_SPACE
 70
     0
 10
0.0
 20
0.0
 30
0.0
  3
$PAPER_SPACE
  1

  0
ENDBLK
  5
20
 67
     1
  8
0
  0
ENDSEC
  0
SECTION
  2
ENTITIES
  0
LINE
  5
2B
  8
DAIKO
 10
34.877155999999999
 20
6.5662949999999993
 30
0.0
 11
46.000658000000001
 21
7.115721999999999
 31
0.0
  0
LINE
  5
2C
  8
DAIKO
 10
20.939955999999999
 20
15.15747
 30
0.0
 11
23.973936999999999
 21
15.307328999999999
 31
0.0
  0
LINE
  5
2D
  8
DAIKO
 10
36.498955000000002
 20
10.002128000000001
 30
0.0
 11
43.681005999999996
 21
10.356873
 31
0.0
  0
LINE
  5
2E
  8
DAIKO
 10
20.866997999999999
 20
14.240985999999999
 30
0.0
 11
23.538229000000001
 21
14.372927000000001
 31
0.0
  0
LINE
  5
2F
  8
DAIKO
 10
39.315421999999998
 20
12.078115
 30
0.0
 11
41.196094000000002
 21
11.759566
 31
0.0
  0
LINE
  5
30
  8
DAIKO
 10
20.458103000000001
 20
7.4898210000000001
 30
0.0
 11
22.886824000000001
 21
12.966597
 31
0.0
  0
LINE
  5
31
  8
DAIKO
 10
28.181657000000001
 20
24.331012000000001
 30
0.0
 11
22.883240000000001
 21
12.968268999999999
 31
0.0
  0
LINE
  5
32
  8
DAIKO
 10
32.565480000000001
 20
1.844184
 30
0.0
 11
35.199690000000011
 21
7.2251409999999998
 31
0.0
  0
LINE
  5
33
  8
DAIKO
 10
40.501690999999987
 20
18.586213999999998
 30
0.0
 11
35.203274
 21
7.2234699999999989
 31
0.0
  0
LINE
  5
34
  8
DAIKO
 10
43.905169999999998
 20
13.853510999999999
 30
0.0
 11
38.705126
 21
14.733381
 31
0.0
  0
LINE
  5
35
  8
DAIKO
 10
43.545782000000003
 20
11.875608
 30
0.0
 11
37.823999999999998
 21
12.843759
 31
0.0
  0
LINE
  5
36
  8
DAIKO
 10
39.326353000000012
 20
16.065636000000001
 30
0.0
 11
46.172097999999998
 21
16.403770000000002
 31
0.0
  0
LINE
  5
37
  8
DAIKO
 10
38.890644000000002
 20
15.131235
 30
0.0
 11
43.773584
 21
15.37242
 31
0.0
  0
LINE
  5
38
  8
DAIKO
 10
0.105559
 20
6.4845410000000001
 30
0.0
 11
2.534279999999999
 21
11.961316999999999
 31
0.0
  0
LINE
  5
39
  8
DAIKO
 10
7.8291130000000004
 20
23.325731999999999
 30
0.0
 11
2.5306959999999989
 21
11.962987999999999
 31
0.0
  0
LINE
  5
3A
  8
DAIKO
 10
12.212935999999999
 20
0.8389040000000001
 30
0.0
 11
14.847146
 21
6.219860999999999
 31
0.0
  0
LINE
  5
3B
  8
DAIKO
 10
20.149146999999999
 20
17.580933000000002
 30
0.0
 11
14.85073
 21
6.2181889999999989
 31
0.0
  0
LINE
  5
3C
  8
DAIKO
 10
22.884467999999998
 20
12.961285
 30
0.0
 11
18.352582000000002
 21
13.728101000000001
 31
0.0
  0
LINE
  5
3D
  8
DAIKO
 10
22.043488
 20
11.064871
 30
0.0
 11
17.471456
 21
11.838479
 31
0.0
  0
ARC
  5
3E
  8
DAIKO
 10
1.1266979999999991
 20
6.0083859999999989
 30
0.0
 40
1.1266979999999991
 50
111.952764
 51
201.98429200000001
  0
ARC
  5
3F
  8
DAIKO
 10
4.6888319999999988
 20
7.4464459999999999
 30
0.0
 40
4.968157999999999
 50
201.98429200000001
 51
223.87
  0
ARC
  5
40
  8
DAIKO
 10
8.218808000000001
 20
10.83986
 30
0.0
 40
9.8646869999999982
 50
223.87
 51
235.905463
  0
ARC
  5
41
  8
DAIKO
 10
12.357087
 20
16.953326999999991
 30
0.0
 40
17.247085999999999
 50
235.905463
 51
254.09551200000001
  0
ARC
  5
42
  8
DAIKO
 10
10.334054
 20
9.8535269999999997
 30
0.0
 40
9.8646869999999982
 50
254.09551200000001
 51
266.13097399999998
  0
ARC
  5
43
  8
DAIKO
 10
10.003655999999999
 20
4.968157999999999
 30
0.0
 40
4.968157999999999
 50
266.13097399999998
 51
288.016682
  0
ARC
  5
44
  8
DAIKO
 10
11.191796999999999
 20
1.3150580000000001
 30
0.0
 40
1.1266979999999991
 50
288.016682
 51
21.984292
  0
ARC
  5
45
  8
DAIKO
 10
7.6296619999999988
 20
-0.123002
 30
0.0
 40
4.968157999999999
 50
21.984292
 51
43.86999999999999
  0
ARC
  5
46
  8
DAIKO
 10
4.0996860000000002
 20
-3.516416
 30
0.0
 40
9.8646869999999982
 50
43.86999999999999
 51
55.90546299999999
  0
ARC
  5
47
  8
DAIKO
 10
-0.038593
 20
-9.6298829999999995
 30
0.0
 40
17.247085999999999
 50
55.90546299999999
 51
74.095511999999999
  0
ARC
  5
48
  8
DAIKO
 10
1.98444
 20
-2.5300829999999999
 30
0.0
 40
9.8646869999999982
 50
74.095511999999999
 51
86.130973999999995
  0
ARC
  5
49
  8
DAIKO
 10
2.3148379999999991
 20
2.3552859999999991
 30
0.0
 40
4.968157999999999
 50
86.130973999999995
 51
108.016682
  0
ARC
  5
4A
  8
DAIKO
 10
13.765625
 20
6.6817979999999988
 30
0.0
 40
1.1746879999999991
 50
335.00048700000002
 51
21.566011
  0
ARC
  5
4B
  8
DAIKO
 10
10.178710000000001
 20
5.264098999999999
 30
0.0
 40
5.0316080000000003
 50
21.566011
 51
43.586632000000002
  0
ARC
  5
4C
  8
DAIKO
 10
6.6363679999999992
 20
1.892347999999999
 30
0.0
 40
9.9220970000000008
 50
43.586632000000002
 51
55.773722999999997
  0
ARC
  5
4D
  8
DAIKO
 10
2.4964430000000002
 20
-4.1933610000000003
 30
0.0
 40
17.282453
 50
55.773722999999997
 51
74.227252000000007
  0
ARC
  5
4E
  8
DAIKO
 10
4.4971540000000001
 20
2.8898579999999998
 30
0.0
 40
9.9220970000000008
 50
74.227252000000007
 51
86.414342000000019
  0
ARC
  5
4F
  8
DAIKO
 10
4.8030080000000002
 20
7.7707740000000003
 30
0.0
 40
5.0316080000000003
 50
86.414342000000019
 51
108.43496399999999
  0
ARC
  5
50
  8
DAIKO
 10
3.583342
 20
11.42977
 30
0.0
 40
1.1746879999999991
 50
108.43496399999999
 51
155.00048699999999
  0
ARC
  5
51
  8
DAIKO
 10
19.104310999999999
 20
18.068137
 30
0.0
 40
1.1528439999999991
 50
335.00048700000002
 51
21.891632000000001
  0
ARC
  5
52
  8
DAIKO
 10
15.48743
 20
16.614774000000001
 30
0.0
 40
5.0508040000000003
 50
21.891632000000001
 51
43.807466999999988
  0
ARC
  5
53
  8
DAIKO
 10
11.905924000000001
 20
13.179335999999999
 30
0.0
 40
10.013608
 50
43.807466999999988
 51
55.876426000000002
  0
ARC
  5
54
  8
DAIKO
 10
7.710113999999999
 20
6.987639999999999
 30
0.0
 40
17.493041000000002
 50
55.876426000000002
 51
74.124549000000002
  0
ARC
  5
55
  8
DAIKO
 10
9.7560909999999996
 20
14.181797
 30
0.0
 40
10.013608
 50
74.124549000000002
 51
86.193506999999997
  0
ARC
  5
56
  8
DAIKO
 10
10.085557
 20
19.133652999999999
 30
0.0
 40
5.0508040000000003
 50
86.193506999999997
 51
108.109343
  0
ARC
  5
57
  8
DAIKO
 10
8.8739480000000004
 20
22.838528
 30
0.0
 40
1.1528439999999991
 50
108.109343
 51
155.00048699999999
  0
ARC
  5
58
  8
DAIKO
 10
21.301193999999999
 20
12.119519
 30
0.0
 40
3.0584530000000001
 50
96.528983999999966
 51
149.43517199999999
  0
ARC
  5
59
  8
DAIKO
 10
21.040647
 20
12.632025000000001
 30
0.0
 40
1.618304999999999
 50
96.159852999999984
 51
147.398785
  0
ARC
  5
5A
  8
DAIKO
 10
24.275423
 20
10.269325
 30
0.0
 40
6.587788999999999
 50
166.81033199999999
 51
199.34447800000001
  0
ARC
  5
5B
  8
DAIKO
 10
21.121205
 20
9.0076359999999998
 30
0.0
 40
3.1970329999999998
 50
196.73360199999999
 51
264.15884999999997
  0
ARC
  5
5C
  8
DAIKO
 10
21.607688
 20
11.395909
 30
0.0
 40
2.5044270000000002
 50
176.21018100000001
 51
233.0035720000001
  0
ARC
  5
5D
  8
DAIKO
 10
20.721751999999999
 20
10.431469999999999
 30
0.0
 40
1.207746999999999
 50
239.04951600000001
 51
298.06700899999998
  0
ARC
  5
5E
  8
DAIKO
 10
46.167676
 20
13.733757000000001
 30
0.0
 40
2.6700169999999992
 50
21.768250999999999
 51
89.905116000000007
  0
ARC
  5
5F
  8
DAIKO
 10
42.839399999999998
 20
11.98648
 30
0.0
 40
6.420698999999999
 50
332.37272000000002
 51
25.236117
  0
ARC
  5
60
  8
DAIKO
 10
45.552512999999998
 20
10.347453
 30
0.0
 40
3.2626559999999998
 50
277.89486899999991
 51
335.78210799999999
  0
ARC
  5
61
  8
DAIKO
 10
43.746994999999998
 20
13.883278000000001
 30
0.0
 40
1.489379
 50
20.082789999999999
 51
88.977078000000006
  0
ARC
  5
62
  8
DAIKO
 10
41.999003999999992
 20
12.998877999999999
 30
0.0
 40
3.4424899999999998
 50
326.129324
 51
23.920449000000001
  0
ARC
  5
63
  8
DAIKO
 10
43.512593999999993
 20
11.948734
 30
0.0
 40
1.6007439999999991
 50
276.03920099999999
 51
327.14511399999998
  0
ARC
  5
64
  8
DAIKO
 10
43.677318
 20
13.158207000000001
 30
0.0
 40
0.7332060000000001
 50
3.9401989999999989
 51
71.041083
  0
ARC
  5
65
  8
DAIKO
 10
43.015509999999992
 20
13.005312999999999
 30
0.0
 40
1.4080319999999991
 50
322.60129499999999
 51
8.3007360000000006
  0
ARC
  5
66
  8
DAIKO
 10
43.606146000000003
 20
12.513881
 30
0.0
 40
0.6411210000000001
 50
264.59735599999999
 51
325.43357700000001
  0
ARC
  5
67
  8
DAIKO
 10
41.272159999999992
 20
12.305847
 30
0.0
 40
0.551551
 50
262.07300300000003
 51
305.3388589999999
  0
ARC
  5
68
  8
DAIKO
 10
41.028565
 20
12.660963000000001
 30
0.0
 40
0.9821559999999999
 50
304.94847800000002
 51
329.24496299999998
  0
ARC
  5
69
  8
DAIKO
 10
39.587445000000002
 20
12.777614
 30
0.0
 40
0.77402
 50
187.60390599999999
 51
235.09861100000001
  0
ARC
  5
6A
  8
DAIKO
 10
39.400213000000001
 20
12.560146
 30
0.0
 40
0.4894070000000001
 50
238.51072099999999
 51
298.90857599999998
  0
ARC
  5
6B
  8
DAIKO
 10
39.198822999999997
 20
12.937068
 30
0.0
 40
0.916735
 50
298.53898500000003
 51
329.87492400000002
  0
ARC
  5
6C
  8
DAIKO
 10
42.078750999999997
 20
12.598331999999999
 30
0.0
 40
0.467916
 50
259.40159
 51
290.91689500000001
  0
ARC
  5
6D
  8
DAIKO
 10
41.970917
 20
12.880473
 30
0.0
 40
0.7699620000000002
 50
290.91689500000001
 51
315.36138399999999
  0
ARC
  5
6E
  8
DAIKO
 10
41.756045
 20
13.092650000000001
 30
0.0
 40
1.0719369999999999
 50
315.36138399999999
 51
333.76924300000002
  0
ARC
  5
6F
  8
DAIKO
 10
41.387486999999993
 20
13.274248999999999
 30
0.0
 40
1.482804999999999
 50
333.76924300000002
 51
5.0339359999999989
  0
ARC
  5
70
  8
DAIKO
 10
41.796771
 20
13.310301000000001
 30
0.0
 40
1.0719369999999999
 50
5.0339359999999989
 51
23.441794999999999
  0
ARC
  5
71
  8
DAIKO
 10
42.07382299999999
 20
13.430432
 30
0.0
 40
0.7699620000000002
 50
23.441794999999999
 51
47.886284000000003
  0
ARC
  5
72
  8
DAIKO
 10
42.276375999999999
 20
13.654494
 30
0.0
 40
0.467916
 50
47.886284000000003
 51
79.401589999999999
  0
ARC
  5
73
  8
DAIKO
 10
21.726206999999999
 20
11.593051000000001
 30
0.0
 40
0.467916
 50
259.40159
 51
290.91689500000001
  0
ARC
  5
74
  8
DAIKO
 10
21.618372000000001
 20
11.875192
 30
0.0
 40
0.7699620000000002
 50
290.91689500000001
 51
314.73225400000001
  0
ARC
  5
75
  8
DAIKO
 10
21.444227000000001
 20
12.305020000000001
 30
0.0
 40
1.0719369999999999
 50
5.0339359999999989
 51
23.441794999999999
  0
ARC
  5
76
  8
DAIKO
 10
21.721278999999999
 20
12.425151
 30
0.0
 40
0.7699620000000002
 50
23.441794999999999
 51
47.886284000000003
  0
ARC
  5
77
  8
DAIKO
 10
21.034942999999998
 20
12.268967999999999
 30
0.0
 40
1.482804999999999
 50
354.10360100000003
 51
5.0339359999999989
  0
LINE
  5
78
  8
DAIKO
 10
20.458103000000001
 20
7.4898210000000001
 30
0.0
 11
22.886824000000001
 21
12.966597
 31
0.0
  0
ARC
  5
79
  8
DAIKO
 10
21.479241999999999
 20
7.013666999999999
 30
0.0
 40
1.1266979999999991
 50
111.952764
 51
201.98429200000001
  0
ARC
  5
7A
  8
DAIKO
 10
25.041376
 20
8.4517269999999982
 30
0.0
 40
4.968157999999999
 50
201.98429200000001
 51
223.87
  0
ARC
  5
7B
  8
DAIKO
 10
28.571352999999998
 20
11.845141
 30
0.0
 40
9.8646869999999982
 50
223.87
 51
235.905463
  0
ARC
  5
7C
  8
DAIKO
 10
32.709631000000002
 20
17.958607999999991
 30
0.0
 40
17.247085999999999
 50
235.905463
 51
254.09551200000001
  0
ARC
  5
7D
  8
DAIKO
 10
30.686598
 20
10.858807000000001
 30
0.0
 40
9.8646869999999982
 50
254.09551200000001
 51
266.13097399999998
  0
ARC
  5
7E
  8
DAIKO
 10
30.356200999999999
 20
5.9734389999999991
 30
0.0
 40
4.968157999999999
 50
266.13097399999998
 51
288.016682
  0
ARC
  5
7F
  8
DAIKO
 10
31.544340999999999
 20
2.320338
 30
0.0
 40
1.1266979999999991
 50
288.016682
 51
21.984292
  0
ARC
  5
80
  8
DAIKO
 10
27.982206000000001
 20
0.8822780000000001
 30
0.0
 40
4.968157999999999
 50
21.984292
 51
43.86999999999999
  0
ARC
  5
81
  8
DAIKO
 10
24.45223
 20
-2.511134999999999
 30
0.0
 40
9.8646869999999982
 50
43.86999999999999
 51
55.90546299999999
  0
ARC
  5
82
  8
DAIKO
 10
20.313952
 20
-8.6246020000000012
 30
0.0
 40
17.247085999999999
 50
55.90546299999999
 51
74.095511999999999
  0
ARC
  5
83
  8
DAIKO
 10
22.336984000000001
 20
-1.524802
 30
0.0
 40
9.8646869999999982
 50
74.095511999999999
 51
86.130973999999995
  0
ARC
  5
84
  8
DAIKO
 10
22.667382
 20
3.3605669999999992
 30
0.0
 40
4.968157999999999
 50
86.130973999999995
 51
108.016682
  0
ARC
  5
85
  8
DAIKO
 10
34.118169000000002
 20
7.6870789999999989
 30
0.0
 40
1.1746879999999991
 50
335.00048700000002
 51
21.566011
  0
ARC
  5
86
  8
DAIKO
 10
30.531254000000001
 20
6.2693789999999989
 30
0.0
 40
5.0316080000000003
 50
21.566011
 51
43.586632000000002
  0
ARC
  5
87
  8
DAIKO
 10
26.988911999999999
 20
2.8976289999999998
 30
0.0
 40
9.9220970000000008
 50
43.586632000000002
 51
55.773722999999997
  0
ARC
  5
88
  8
DAIKO
 10
22.848987000000001
 20
-3.1880809999999991
 30
0.0
 40
17.282453
 50
55.773722999999997
 51
74.227252000000007
  0
ARC
  5
89
  8
DAIKO
 10
24.849698
 20
3.895138999999999
 30
0.0
 40
9.9220970000000008
 50
74.227252000000007
 51
86.414342000000019
  0
ARC
  5
8A
  8
DAIKO
 10
25.155552
 20
8.7760540000000002
 30
0.0
 40
5.0316080000000003
 50
86.414342000000019
 51
108.43496399999999
  0
ARC
  5
8B
  8
DAIKO
 10
23.935886
 20
12.43505
 30
0.0
 40
1.1746879999999991
 50
108.43496399999999
 51
155.00048699999999
  0
ARC
  5
8C
  8
DAIKO
 10
39.456856000000002
 20
19.073418
 30
0.0
 40
1.1528439999999991
 50
335.00048700000002
 51
21.891632000000001
  0
ARC
  5
8D
  8
DAIKO
 10
35.839973999999998
 20
17.620054
 30
0.0
 40
5.0508040000000003
 50
21.891632000000001
 51
43.807466999999988
  0
ARC
  5
8E
  8
DAIKO
 10
32.258468000000001
 20
14.184616999999999
 30
0.0
 40
10.013608
 50
43.807466999999988
 51
55.876426000000002
  0
ARC
  5
8F
  8
DAIKO
 10
28.062657999999999
 20
7.9929199999999989
 30
0.0
 40
17.493041000000002
 50
55.876426000000002
 51
74.124549000000002
  0
ARC
  5
90
  8
DAIKO
 10
30.108635
 20
15.187078
 30
0.0
 40
10.013608
 50
74.124549000000002
 51
86.193506999999997
  0
ARC
  5
91
  8
DAIKO
 10
30.438101
 20
20.138933000000002
 30
0.0
 40
5.0508040000000003
 50
86.193506999999997
 51
108.109343
  0
ARC
  5
92
  8
DAIKO
 10
29.226492
 20
23.843807999999999
 30
0.0
 40
1.1528439999999991
 50
108.109343
 51
155.00048699999999
  0
TEXT
  5
93
  8
DAIKO
 10
0.0
 20
-11.0
 30
0.0
 40
3.0
  1
DSL-4988FW
  7
BIGFONT
  0
ENDSEC
  0
EOF
