  0
SECTION
  2
HEADER
  9
$ACADVER
  1
AC1009
  9
$INSBASE
 10
0.0
 20
0.0
 30
0.0
  9
$EXTMIN
 10
0.0
 20
-11.0
 30
0.0
  9
$EXTMAX
 10
49.717737358377349
 20
40.940184660821267
 30
0.0
  9
$LIMMIN
 10
0.0
 20
0.0
  9
$LIMMAX
 10
12.0
 20
9.0
  9
$ORTHOMODE
 70
     0
  9
$REGENMODE
 70
     1
  9
$FILLMODE
 70
     1
  9
$QTEXTMODE
 70
     0
  9
$MIRRTEXT
 70
     0
  9
$DRAGMODE
 70
     2
  9
$LTSCALE
 40
1.0
  9
$OSMODE
 70
    37
  9
$ATTMODE
 70
     1
  9
$TEXTSIZE
 40
3.5
  9
$TRACEWID
 40
0.05
  9
$TEXTSTYLE
  7
STANDARD
  9
$CLAYER
  8
0
  9
$CELTYPE
  6
CONTINUOUS
  9
$CECOLOR
 62
   256
  9
$DIMSCALE
 40
1.0
  9
$DIMASZ
 40
0.18
  9
$DIMEXO
 40
0.0625
  9
$DIMDLI
 40
0.38
  9
$DIMRND
 40
0.0
  9
$DIMDLE
 40
0.0
  9
$DIMEXE
 40
0.18
  9
$DIMTP
 40
0.0
  9
$DIMTM
 40
0.0
  9
$DIMTXT
 40
0.18
  9
$DIMCEN
 40
0.09
  9
$DIMTSZ
 40
0.0
  9
$DIMTOL
 70
     0
  9
$DIMLIM
 70
     0
  9
$DIMTIH
 70
     1
  9
$DIMTOH
 70
     1
  9
$DIMSE1
 70
     0
  9
$DIMSE2
 70
     0
  9
$DIMTAD
 70
     0
  9
$DIMZIN
 70
     0
  9
$DIMBLK
  1

  9
$DIMASO
 70
     1
  9
$DIMSHO
 70
     1
  9
$DIMPOST
  1

  9
$DIMAPOST
  1

  9
$DIMALT
 70
     0
  9
$DIMALTD
 70
     2
  9
$DIMALTF
 40
25.399999999999999
  9
$DIMLFAC
 40
1.0
  9
$DIMTOFL
 70
     0
  9
$DIMTVP
 40
0.0
  9
$DIMTIX
 70
     0
  9
$DIMSOXD
 70
     0
  9
$DIMSAH
 70
     0
  9
$DIMBLK1
  1

  9
$DIMBLK2
  1

  9
$DIMSTYLE
  2
STANDARD
  9
$DIMCLRD
 70
     0
  9
$DIMCLRE
 70
     0
  9
$DIMCLRT
 70
     0
  9
$DIMTFAC
 40
1.0
  9
$DIMGAP
 40
0.09
  9
$LUNITS
 70
     2
  9
$LUPREC
 70
     4
  9
$SKETCHINC
 40
0.1
  9
$FILLETRAD
 40
0.0
  9
$AUNITS
 70
     0
  9
$AUPREC
 70
     0
  9
$MENU
  1
.
  9
$ELEVATION
 40
0.0
  9
$PELEVATION
 40
0.0
  9
$THICKNESS
 40
0.0
  9
$LIMCHECK
 70
     0
  9
$BLIPMODE
 70
     0
  9
$CHAMFERA
 40
0.0
  9
$CHAMFERB
 40
0.0
  9
$SKPOLY
 70
     0
  9
$TDCREATE
 40
2457864.4945100122
  9
$TDUPDATE
 40
2457864.5040994911
  9
$TDINDWG
 40
0.0000355787
  9
$TDUSRTIMER
 40
0.0000355787
  9
$USRTIMER
 70
     1
  9
$ANGBASE
 50
0.0
  9
$ANGDIR
 70
     0
  9
$PDMODE
 70
     0
  9
$PDSIZE
 40
0.0
  9
$PLINEWID
 40
0.0
  9
$COORDS
 70
     1
  9
$SPLFRAME
 70
     0
  9
$SPLINETYPE
 70
     6
  9
$SPLINESEGS
 70
     8
  9
$ATTDIA
 70
     0
  9
$ATTREQ
 70
     1
  9
$HANDLING
 70
     1
  9
$HANDSEED
  5
95
  9
$SURFTAB1
 70
     6
  9
$SURFTAB2
 70
     6
  9
$SURFTYPE
 70
     6
  9
$SURFU
 70
     6
  9
$SURFV
 70
     6
  9
$UCSNAME
  2

  9
$UCSORG
 10
0.0
 20
0.0
 30
0.0
  9
$UCSXDIR
 10
1.0
 20
0.0
 30
0.0
  9
$UCSYDIR
 10
0.0
 20
1.0
 30
0.0
  9
$PUCSNAME
  2

  9
$PUCSORG
 10
0.0
 20
0.0
 30
0.0
  9
$PUCSXDIR
 10
1.0
 20
0.0
 30
0.0
  9
$PUCSYDIR
 10
0.0
 20
1.0
 30
0.0
  9
$USERI1
 70
     0
  9
$USERI2
 70
     0
  9
$USERI3
 70
     0
  9
$USERI4
 70
     0
  9
$USERI5
 70
     0
  9
$USERR1
 40
0.0
  9
$USERR2
 40
0.0
  9
$USERR3
 40
0.0
  9
$USERR4
 40
0.0
  9
$USERR5
 40
0.0
  9
$WORLDVIEW
 70
     1
  9
$SHADEDGE
 70
     3
  9
$SHADEDIF
 70
    70
  9
$TILEMODE
 70
     1
  9
$MAXACTVP
 70
    64
  9
$PLIMCHECK
 70
     0
  9
$PEXTMIN
 10
1.0000000000000000E+020
 20
1.0000000000000000E+020
 30
1.0000000000000000E+020
  9
$PEXTMAX
 10
-1.0000000000000000E+020
 20
-1.0000000000000000E+020
 30
-1.0000000000000000E+020
  9
$PLIMMIN
 10
0.0
 20
0.0
  9
$PLIMMAX
 10
12.0
 20
9.0
  9
$UNITMODE
 70
     0
  9
$VISRETAIN
 70
     1
  9
$PLINEGEN
 70
     0
  9
$PSLTSCALE
 70
     1
  0
ENDSEC
  0
SECTION
  2
TABLES
  0
TABLE
  2
VPORT
 70
     2
  0
VPORT
  2
*ACTIVE
 70
     0
 10
0.0
 20
0.0
 11
1.0
 21
1.0
 12
24.89212311591298
 22
14.96938955999277
 13
0.0
 23
0.0
 14
1.0
 24
1.0
 15
0.0
 25
0.0
 16
0.0
 26
0.0
 36
1.0
 17
0.0
 27
0.0
 37
0.0
 40
52.616829947385646
 41
1.519396551724137
 42
50.0
 43
0.0
 44
0.0
 50
0.0
 51
0.0
 71
     0
 72
   100
 73
     1
 74
     1
 75
     0
 76
     0
 77
     0
 78
     0
  0
ENDTAB
  0
TABLE
  2
LTYPE
 70
     1
  0
LTYPE
  2
CONTINUOUS
 70
     0
  3
Solid line
 72
    65
 73
     0
 40
0.0
  0
ENDTAB
  0
TABLE
  2
LAYER
 70
     2
  0
LAYER
  2
0
 70
     0
 62
     7
  6
CONTINUOUS
  0
LAYER
  2
DAIKO
 70
     0
 62
     7
  6
CONTINUOUS
  0
ENDTAB
  0
TABLE
  2
STYLE
 70
     2
  0
STYLE
  2
STANDARD
 70
     0
 40
0.0
 41
1.0
 50
0.0
 71
     0
 42
3.5
  3
txt.shx
  4
bigfont.shx
  0
STYLE
  2
BIGFONT
 70
     0
 40
1.0
 41
1.0
 50
0.0
 71
     0
 42
0.0
  3
txt
  4
bigfont
  0
ENDTAB
  0
TABLE
  2
VIEW
 70
     0
  0
ENDTAB
  0
TABLE
  2
UCS
 70
     0
  0
ENDTAB
  0
TABLE
  2
APPID
 70
     1
  0
APPID
  2
ACAD
 70
     0
  0
ENDTAB
  0
TABLE
  2
DIMSTYLE
 70
     1
  0
DIMSTYLE
  2
STANDARD
 70
     0
  3

  4

  5

  6

  7

 40
1.0
 41
0.18
 42
0.0625
 43
0.38
 44
0.18
 45
0.0
 46
0.0
 47
0.0
 48
0.0
140
0.18
141
0.09
142
0.0
143
25.399999999999999
144
1.0
145
0.0
146
1.0
147
0.09
 71
     0
 72
     0
 73
     1
 74
     1
 75
     0
 76
     0
 77
     0
 78
     0
170
     0
171
     2
172
     0
173
     0
174
     0
175
     0
176
     0
177
     0
178
     0
  0
ENDTAB
  0
ENDSEC
  0
SECTION
  2
BLOCKS
  0
BLOCK
  8
0
  2
$MODEL_SPACE
 70
     0
 10
0.0
 20
0.0
 30
0.0
  3
$MODEL_SPACE
  1

  0
ENDBLK
  5
24
  8
0
  0
BLOCK
 67
     1
  8
0
  2
$PAPER_SPACE
 70
     0
 10
0.0
 20
0.0
 30
0.0
  3
$PAPER_SPACE
  1

  0
ENDBLK
  5
20
 67
     1
  8
0
  0
ENDSEC
  0
SECTION
  2
ENTITIES
  0
LINE
  5
2B
  8
DAIKO
 10
36.578657
 20
27.301313
 30
0.0
 11
30.893675999999999
 21
27.301313
 31
0.0
  0
LINE
  5
2C
  8
DAIKO
 10
36.578657
 20
24.039978999999999
 30
0.0
 11
29.706679000000001
 21
24.039978999999999
 31
0.0
  0
LINE
  5
2D
  8
DAIKO
 10
36.578657
 20
36.865980999999998
 30
0.0
 11
42.455782999999997
 21
37.184277000000002
 31
0.0
  0
LINE
  5
2E
  8
DAIKO
 10
36.578657
 20
14.475311
 30
0.0
 11
42.455782999999997
 21
14.157014999999999
 31
0.0
  0
LINE
  5
2F
  8
DAIKO
 10
0.115161
 20
9.5204210000000007
 30
0.0
 11
3.4069349999999989
 21
19.126542999999991
 31
0.0
  0
LINE
  5
30
  8
DAIKO
 10
10.668308
 20
39.097128000000012
 30
0.0
 11
3.4006359999999991
 21
19.128836
 31
0.0
  0
LINE
  5
31
  8
DAIKO
 10
21.392033000000001
 20
1.7764779999999989
 30
0.0
 11
25.044923000000001
 21
11.251168
 31
0.0
  0
LINE
  5
32
  8
DAIKO
 10
32.31889300000001
 20
31.217168000000001
 30
0.0
 11
25.051221000000002
 21
11.248875999999999
 31
0.0
  0
ARC
  5
33
  8
DAIKO
 10
1.909656999999999
 20
8.8672950000000004
 30
0.0
 40
1.909656999999999
 50
113.016682
 51
206.98429200000001
  0
ARC
  5
34
  8
DAIKO
 10
7.7117659999999999
 20
11.821614
 30
0.0
 40
8.4206070000000004
 50
206.98429200000001
 51
228.87
  0
ARC
  5
35
  8
DAIKO
 10
13.170729
 20
18.07273
 30
0.0
 40
16.719808
 50
228.87
 51
240.905463
  0
ARC
  5
36
  8
DAIKO
 10
19.254978999999999
 20
29.006422000000001
 30
0.0
 40
29.23235
 50
240.905463
 51
259.09551199999999
  0
ARC
  5
37
  8
DAIKO
 10
16.887951000000001
 20
16.719808
 30
0.0
 40
16.719808
 50
259.09551199999999
 51
271.13097399999998
  0
ARC
  5
38
  8
DAIKO
 10
17.051760999999999
 20
8.4222239999999982
 30
0.0
 40
8.4206070000000004
 50
271.13097399999998
 51
293.016682
  0
ARC
  5
39
  8
DAIKO
 10
19.597536000000002
 20
2.429603999999999
 30
0.0
 40
1.909656999999999
 50
293.016682
 51
26.984292
  0
ARC
  5
3A
  8
DAIKO
 10
13.795427
 20
-0.524715
 30
0.0
 40
8.4206070000000004
 50
26.984292
 51
48.869999999999997
  0
ARC
  5
3B
  8
DAIKO
 10
8.3364639999999994
 20
-6.7758320000000003
 30
0.0
 40
16.719808
 50
48.869999999999997
 51
60.905462999999997
  0
ARC
  5
3C
  8
DAIKO
 10
2.2522150000000001
 20
-17.709523000000001
 30
0.0
 40
29.23235
 50
60.905462999999997
 51
79.095511999999999
  0
ARC
  5
3D
  8
DAIKO
 10
4.619241999999999
 20
-5.4229089999999989
 30
0.0
 40
16.719808
 50
79.095511999999999
 51
91.130973999999995
  0
ARC
  5
3E
  8
DAIKO
 10
4.4554330000000002
 20
2.874674999999999
 30
0.0
 40
8.4206070000000004
 50
91.130973999999995
 51
113.016682
  0
ARC
  5
3F
  8
DAIKO
 10
23.175559
 20
11.868192000000001
 30
0.0
 40
1.966439
 50
339.83852100000001
 51
26.612593
  0
ARC
  5
40
  8
DAIKO
 10
17.293464
 20
8.9210410000000007
 30
0.0
 40
8.5455529999999982
 50
26.612593
 51
48.566298000000003
  0
ARC
  5
41
  8
DAIKO
 10
11.758483999999999
 20
2.6502779999999988
 30
0.0
 40
16.909670999999999
 50
48.566298000000003
 51
60.677653999999997
  0
ARC
  5
42
  8
DAIKO
 10
5.5882870000000002
 20
-8.3348410000000008
 30
0.0
 40
29.509042999999998
 50
60.677653999999997
 51
78.999387999999996
  0
ARC
  5
43
  8
DAIKO
 10
7.9924929999999987
 20
4.0330190000000004
 30
0.0
 40
16.909670999999999
 50
78.999387999999996
 51
91.110744000000011
  0
ARC
  5
44
  8
DAIKO
 10
7.8303549999999991
 20
12.395566000000001
 30
0.0
 40
8.5455529999999982
 50
91.110744000000011
 51
113.064449
  0
ARC
  5
45
  8
DAIKO
 10
5.2528800000000002
 20
18.448777
 30
0.0
 40
1.966439
 50
113.064449
 51
159.83852099999999
  0
ARC
  5
46
  8
DAIKO
 10
30.451906000000001
 20
31.896678000000001
 30
0.0
 40
1.986799999999999
 50
340.00048700000002
 51
26.612791999999999
  0
ARC
  5
47
  8
DAIKO
 10
24.594977
 20
28.962111
 30
0.0
 40
8.5377770000000002
 50
26.612791999999999
 51
48.61846400000001
  0
ARC
  5
48
  8
DAIKO
 10
19.100556000000001
 20
22.725864000000001
 30
0.0
 40
16.849181000000002
 50
48.61846400000001
 51
60.788542000000007
  0
ARC
  5
49
  8
DAIKO
 10
12.99455
 20
11.805580000000001
 30
0.0
 40
29.360612
 50
60.788542000000007
 51
79.21243299999999
  0
ARC
  5
4A
  8
DAIKO
 10
15.336290999999999
 20
24.095908000000001
 30
0.0
 40
16.849181000000002
 50
79.21243299999999
 51
91.382510999999994
  0
ARC
  5
4B
  8
DAIKO
 10
15.135762
 20
32.404893000000001
 30
0.0
 40
8.5377770000000002
 50
91.382510999999994
 51
113.388182
  0
ARC
  5
4C
  8
DAIKO
 10
12.535295
 20
38.417619000000002
 30
0.0
 40
1.986799999999999
 50
113.388182
 51
160.00048699999999
  0
ARC
  5
4D
  8
DAIKO
 10
39.318793999999997
 20
29.680720000000001
 30
0.0
 40
8.101153
 50
126.964448
 51
151.172045
  0
ARC
  5
4E
  8
DAIKO
 10
43.713800999999997
 20
27.261751
 30
0.0
 40
13.117874
 50
151.172045
 51
153.130562
  0
ARC
  5
4F
  8
DAIKO
 10
50.692972999999988
 20
25.670646000000001
 30
0.0
 40
20.276119000000001
 50
184.61288200000001
 51
192.84274400000001
  0
ARC
  5
50
  8
DAIKO
 10
43.713800999999997
 20
24.079540999999999
 30
0.0
 40
13.117874
 50
192.84274400000001
 51
208.827955
  0
ARC
  5
51
  8
DAIKO
 10
39.318793999999997
 20
21.660571999999998
 30
0.0
 40
8.101153
 50
208.827955
 51
233.035552
  0
ARC
  5
52
  8
DAIKO
 10
36.578657
 20
18.019589
 30
0.0
 40
3.5442779999999989
 50
233.035552
 51
306.964448
  0
ARC
  5
53
  8
DAIKO
 10
33.838520000000003
 20
21.660571999999998
 30
0.0
 40
8.101153
 50
306.964448
 51
331.17204500000003
  0
ARC
  5
54
  8
DAIKO
 10
29.443512999999999
 20
24.079540999999999
 30
0.0
 40
13.117874
 50
331.17204500000003
 51
347.15725600000002
  0
ARC
  5
55
  8
DAIKO
 10
22.464341000000001
 20
25.670646000000001
 30
0.0
 40
20.276119000000001
 50
347.15725600000002
 51
12.842744
  0
ARC
  5
56
  8
DAIKO
 10
29.443512999999999
 20
27.261751
 30
0.0
 40
13.117874
 50
12.842744
 51
28.827954999999999
  0
ARC
  5
57
  8
DAIKO
 10
33.838520000000003
 20
29.680720000000001
 30
0.0
 40
8.101153
 50
28.827954999999999
 51
53.035551999999988
  0
ARC
  5
58
  8
DAIKO
 10
36.578657
 20
33.321702999999999
 30
0.0
 40
3.5442779999999989
 50
53.035551999999988
 51
126.964448
  0
ARC
  5
59
  8
DAIKO
 10
42.455782999999997
 20
18.942875000000001
 30
0.0
 40
4.7858589999999994
 50
270.0
 51
303.05464000000001
  0
ARC
  5
5A
  8
DAIKO
 10
40.361947999999991
 20
22.160375999999999
 30
0.0
 40
8.6246690000000008
 50
303.05464000000001
 51
327.52311500000002
  0
ARC
  5
5B
  8
DAIKO
 10
37.031472999999998
 20
24.280234
 30
0.0
 40
12.572562
 50
327.52311500000002
 51
345.230163
  0
ARC
  5
5C
  8
DAIKO
 10
31.757735
 20
25.670646000000001
 30
0.0
 40
18.026510999999999
 50
345.230163
 51
14.769837000000001
  0
ARC
  5
5D
  8
DAIKO
 10
37.031472999999998
 20
27.061057999999999
 30
0.0
 40
12.572562
 50
14.769837000000001
 51
32.476885000000003
  0
ARC
  5
5E
  8
DAIKO
 10
40.361947999999991
 20
29.180916
 30
0.0
 40
8.6246690000000008
 50
32.476885000000003
 51
56.945360000000001
  0
ARC
  5
5F
  8
DAIKO
 10
42.455782999999997
 20
32.398416999999988
 30
0.0
 40
4.7858589999999994
 50
56.945360000000001
 51
90.0
  0
ARC
  5
60
  8
DAIKO
 10
32.011336999999997
 20
24.556224
 30
0.0
 40
0.516245
 50
270.0
 51
306.964448
  0
ARC
  5
61
  8
DAIKO
 10
31.612220000000001
 20
25.086555000000001
 30
0.0
 40
1.1799809999999991
 50
306.964448
 51
331.17204500000003
  0
ARC
  5
62
  8
DAIKO
 10
30.972061
 20
25.43889200000001
 30
0.0
 40
1.9106959999999991
 50
331.17204500000003
 51
347.15725600000002
  0
ARC
  5
63
  8
DAIKO
 10
29.955503000000011
 20
25.670646000000001
 30
0.0
 40
2.953336999999999
 50
347.15725600000002
 51
12.842744
  0
ARC
  5
64
  8
DAIKO
 10
30.972061
 20
25.9024
 30
0.0
 40
1.9106959999999991
 50
12.842744
 51
28.827954999999999
  0
ARC
  5
65
  8
DAIKO
 10
31.612220000000001
 20
26.254736999999999
 30
0.0
 40
1.1799809999999991
 50
28.827954999999999
 51
53.035551999999988
  0
ARC
  5
66
  8
DAIKO
 10
32.011336999999997
 20
26.785067999999999
 30
0.0
 40
0.516245
 50
53.035551999999988
 51
90.0
  0
ARC
  5
67
  8
DAIKO
 10
36.578657
 20
24.556224
 30
0.0
 40
0.516245
 50
270.0
 51
306.964448
  0
ARC
  5
68
  8
DAIKO
 10
36.17954000000001
 20
25.086555000000001
 30
0.0
 40
1.1799809999999991
 50
306.964448
 51
331.17204500000003
  0
ARC
  5
69
  8
DAIKO
 10
35.539380999999999
 20
25.43889200000001
 30
0.0
 40
1.9106959999999991
 50
331.17204500000003
 51
347.15725600000002
  0
ARC
  5
6A
  8
DAIKO
 10
34.522823000000002
 20
25.670646000000001
 30
0.0
 40
2.953336999999999
 50
347.15725600000002
 51
0.0
  0
ARC
  5
6B
  8
DAIKO
 10
34.522823000000002
 20
25.670646000000001
 30
0.0
 40
2.953336999999999
 50
0.0
 51
12.842744
  0
ARC
  5
6C
  8
DAIKO
 10
35.539380999999999
 20
25.9024
 30
0.0
 40
1.9106959999999991
 50
12.842744
 51
28.827954999999999
  0
ARC
  5
6D
  8
DAIKO
 10
36.17954000000001
 20
26.254736999999999
 30
0.0
 40
1.1799809999999991
 50
28.827954999999999
 51
53.035551999999988
  0
ARC
  5
6E
  8
DAIKO
 10
36.578657
 20
26.785067999999999
 30
0.0
 40
0.516245
 50
53.035551999999988
 51
90.0
  0
ARC
  5
6F
  8
DAIKO
 10
45.699187000000002
 20
30.544079
 30
0.0
 40
0.380461
 50
152.95775800000001
 51
207.04224199999999
  0
ARC
  5
70
  8
DAIKO
 10
45.792390999999988
 20
30.591654999999999
 30
0.0
 40
0.4851060000000001
 50
207.04224199999999
 51
230.94203999999999
  0
ARC
  5
71
  8
DAIKO
 10
45.852896999999992
 20
30.666219000000002
 30
0.0
 40
0.5811300000000002
 50
230.94203999999999
 51
251.421583
  0
ARC
  5
72
  8
DAIKO
 10
45.892302999999998
 20
30.783460000000002
 30
0.0
 40
0.7048170000000001
 50
251.421583
 51
288.578418
  0
ARC
  5
73
  8
DAIKO
 10
45.931709999999988
 20
30.666219000000002
 30
0.0
 40
0.5811300000000002
 50
288.578418
 51
309.05795999999998
  0
ARC
  5
74
  8
DAIKO
 10
45.992215999999992
 20
30.591654999999999
 30
0.0
 40
0.4851060000000001
 50
309.05795999999998
 51
332.95775800000013
  0
ARC
  5
75
  8
DAIKO
 10
46.085419999999992
 20
30.544079
 30
0.0
 40
0.380461
 50
332.95775800000013
 51
27.042242000000002
  0
ARC
  5
76
  8
DAIKO
 10
45.992215999999992
 20
30.496502
 30
0.0
 40
0.4851060000000001
 50
27.042242000000002
 51
50.942040000000013
  0
ARC
  5
77
  8
DAIKO
 10
45.931709999999988
 20
30.421938000000001
 30
0.0
 40
0.5811300000000002
 50
50.942040000000013
 51
71.421582999999998
  0
ARC
  5
78
  8
DAIKO
 10
45.892302999999998
 20
30.304697000000001
 30
0.0
 40
0.7048170000000001
 50
71.421582999999998
 51
108.578418
  0
ARC
  5
79
  8
DAIKO
 10
45.852896999999992
 20
30.421938000000001
 30
0.0
 40
0.5811300000000002
 50
108.578418
 51
129.05796000000001
  0
ARC
  5
7A
  8
DAIKO
 10
45.792390999999988
 20
30.496502
 30
0.0
 40
0.4851060000000001
 50
129.05796000000001
 51
152.95775800000001
  0
TEXT
  5
7B
  8
DAIKO
 10
0.0
 20
-11.0
 30
0.0
 40
3.0
  1
DSL-4987FW
  7
BIGFONT
  0
ENDSEC
  0
EOF
