  0
SECTION
  2
HEADER
  9
$ACADVER
  1
AC1009
  9
$INSBASE
 10
0.0
 20
0.0
 30
0.0
  9
$EXTMIN
 10
0.0
 20
-11.0
 30
0.0
  9
$EXTMAX
 10
33.463643736664238
 20
49.340195999999999
 30
0.0
  9
$LIMMIN
 10
0.0
 20
0.0
  9
$LIMMAX
 10
12.0
 20
9.0
  9
$ORTHOMODE
 70
     0
  9
$REGENMODE
 70
     1
  9
$FILLMODE
 70
     1
  9
$QTEXTMODE
 70
     0
  9
$MIRRTEXT
 70
     0
  9
$DRAGMODE
 70
     2
  9
$LTSCALE
 40
1.0
  9
$OSMODE
 70
    37
  9
$ATTMODE
 70
     1
  9
$TEXTSIZE
 40
3.5
  9
$TRACEWID
 40
0.05
  9
$TEXTSTYLE
  7
STANDARD
  9
$CLAYER
  8
0
  9
$CELTYPE
  6
CONTINUOUS
  9
$CECOLOR
 62
   256
  9
$DIMSCALE
 40
1.0
  9
$DIMASZ
 40
0.18
  9
$DIMEXO
 40
0.0625
  9
$DIMDLI
 40
0.38
  9
$DIMRND
 40
0.0
  9
$DIMDLE
 40
0.0
  9
$DIMEXE
 40
0.18
  9
$DIMTP
 40
0.0
  9
$DIMTM
 40
0.0
  9
$DIMTXT
 40
0.18
  9
$DIMCEN
 40
0.09
  9
$DIMTSZ
 40
0.0
  9
$DIMTOL
 70
     0
  9
$DIMLIM
 70
     0
  9
$DIMTIH
 70
     1
  9
$DIMTOH
 70
     1
  9
$DIMSE1
 70
     0
  9
$DIMSE2
 70
     0
  9
$DIMTAD
 70
     0
  9
$DIMZIN
 70
     0
  9
$DIMBLK
  1

  9
$DIMASO
 70
     1
  9
$DIMSHO
 70
     1
  9
$DIMPOST
  1

  9
$DIMAPOST
  1

  9
$DIMALT
 70
     0
  9
$DIMALTD
 70
     2
  9
$DIMALTF
 40
25.399999999999999
  9
$DIMLFAC
 40
1.0
  9
$DIMTOFL
 70
     0
  9
$DIMTVP
 40
0.0
  9
$DIMTIX
 70
     0
  9
$DIMSOXD
 70
     0
  9
$DIMSAH
 70
     0
  9
$DIMBLK1
  1

  9
$DIMBLK2
  1

  9
$DIMSTYLE
  2
STANDARD
  9
$DIMCLRD
 70
     0
  9
$DIMCLRE
 70
     0
  9
$DIMCLRT
 70
     0
  9
$DIMTFAC
 40
1.0
  9
$DIMGAP
 40
0.09
  9
$LUNITS
 70
     2
  9
$LUPREC
 70
     4
  9
$SKETCHINC
 40
0.1
  9
$FILLETRAD
 40
0.0
  9
$AUNITS
 70
     0
  9
$AUPREC
 70
     0
  9
$MENU
  1
.
  9
$ELEVATION
 40
0.0
  9
$PELEVATION
 40
0.0
  9
$THICKNESS
 40
0.0
  9
$LIMCHECK
 70
     0
  9
$BLIPMODE
 70
     0
  9
$CHAMFERA
 40
0.0
  9
$CHAMFERB
 40
0.0
  9
$SKPOLY
 70
     0
  9
$TDCREATE
 40
2457864.4944753591
  9
$TDUPDATE
 40
2457864.504073414
  9
$TDINDWG
 40
0.0000355787
  9
$TDUSRTIMER
 40
0.0000355787
  9
$USRTIMER
 70
     1
  9
$ANGBASE
 50
0.0
  9
$ANGDIR
 70
     0
  9
$PDMODE
 70
     0
  9
$PDSIZE
 40
0.0
  9
$PLINEWID
 40
0.0
  9
$COORDS
 70
     1
  9
$SPLFRAME
 70
     0
  9
$SPLINETYPE
 70
     6
  9
$SPLINESEGS
 70
     8
  9
$ATTDIA
 70
     0
  9
$ATTREQ
 70
     1
  9
$HANDLING
 70
     1
  9
$HANDSEED
  5
CC
  9
$SURFTAB1
 70
     6
  9
$SURFTAB2
 70
     6
  9
$SURFTYPE
 70
     6
  9
$SURFU
 70
     6
  9
$SURFV
 70
     6
  9
$UCSNAME
  2

  9
$UCSORG
 10
0.0
 20
0.0
 30
0.0
  9
$UCSXDIR
 10
1.0
 20
0.0
 30
0.0
  9
$UCSYDIR
 10
0.0
 20
1.0
 30
0.0
  9
$PUCSNAME
  2

  9
$PUCSORG
 10
0.0
 20
0.0
 30
0.0
  9
$PUCSXDIR
 10
1.0
 20
0.0
 30
0.0
  9
$PUCSYDIR
 10
0.0
 20
1.0
 30
0.0
  9
$USERI1
 70
     0
  9
$USERI2
 70
     0
  9
$USERI3
 70
     0
  9
$USERI4
 70
     0
  9
$USERI5
 70
     0
  9
$USERR1
 40
0.0
  9
$USERR2
 40
0.0
  9
$USERR3
 40
0.0
  9
$USERR4
 40
0.0
  9
$USERR5
 40
0.0
  9
$WORLDVIEW
 70
     1
  9
$SHADEDGE
 70
     3
  9
$SHADEDIF
 70
    70
  9
$TILEMODE
 70
     1
  9
$MAXACTVP
 70
    64
  9
$PLIMCHECK
 70
     0
  9
$PEXTMIN
 10
1.0000000000000000E+020
 20
1.0000000000000000E+020
 30
1.0000000000000000E+020
  9
$PEXTMAX
 10
-1.0000000000000000E+020
 20
-1.0000000000000000E+020
 30
-1.0000000000000000E+020
  9
$PLIMMIN
 10
0.0
 20
0.0
  9
$PLIMMAX
 10
12.0
 20
9.0
  9
$UNITMODE
 70
     0
  9
$VISRETAIN
 70
     1
  9
$PLINEGEN
 70
     0
  9
$PSLTSCALE
 70
     1
  0
ENDSEC
  0
SECTION
  2
TABLES
  0
TABLE
  2
VPORT
 70
     2
  0
VPORT
  2
*ACTIVE
 70
     0
 10
0.0
 20
0.0
 11
1.0
 21
1.0
 12
16.762546557318139
 22
19.170845898223519
 13
0.0
 23
0.0
 14
1.0
 24
1.0
 15
0.0
 25
0.0
 16
0.0
 26
0.0
 36
1.0
 17
0.0
 27
0.0
 37
0.0
 40
61.121056583418188
 41
1.519396551724137
 42
50.0
 43
0.0
 44
0.0
 50
0.0
 51
0.0
 71
     0
 72
   100
 73
     1
 74
     1
 75
     0
 76
     0
 77
     0
 78
     0
  0
ENDTAB
  0
TABLE
  2
LTYPE
 70
     1
  0
LTYPE
  2
CONTINUOUS
 70
     0
  3
Solid line
 72
    65
 73
     0
 40
0.0
  0
ENDTAB
  0
TABLE
  2
LAYER
 70
     2
  0
LAYER
  2
0
 70
     0
 62
     7
  6
CONTINUOUS
  0
LAYER
  2
DAIKO
 70
     0
 62
     7
  6
CONTINUOUS
  0
ENDTAB
  0
TABLE
  2
STYLE
 70
     2
  0
STYLE
  2
STANDARD
 70
     0
 40
0.0
 41
1.0
 50
0.0
 71
     0
 42
3.5
  3
txt.shx
  4
bigfont.shx
  0
STYLE
  2
BIGFONT
 70
     0
 40
1.0
 41
1.0
 50
0.0
 71
     0
 42
0.0
  3
txt
  4
bigfont
  0
ENDTAB
  0
TABLE
  2
VIEW
 70
     0
  0
ENDTAB
  0
TABLE
  2
UCS
 70
     0
  0
ENDTAB
  0
TABLE
  2
APPID
 70
     1
  0
APPID
  2
ACAD
 70
     0
  0
ENDTAB
  0
TABLE
  2
DIMSTYLE
 70
     1
  0
DIMSTYLE
  2
STANDARD
 70
     0
  3

  4

  5

  6

  7

 40
1.0
 41
0.18
 42
0.0625
 43
0.38
 44
0.18
 45
0.0
 46
0.0
 47
0.0
 48
0.0
140
0.18
141
0.09
142
0.0
143
25.399999999999999
144
1.0
145
0.0
146
1.0
147
0.09
 71
     0
 72
     0
 73
     1
 74
     1
 75
     0
 76
     0
 77
     0
 78
     0
170
     0
171
     2
172
     0
173
     0
174
     0
175
     0
176
     0
177
     0
178
     0
  0
ENDTAB
  0
ENDSEC
  0
SECTION
  2
BLOCKS
  0
BLOCK
  8
0
  2
$MODEL_SPACE
 70
     0
 10
0.0
 20
0.0
 30
0.0
  3
$MODEL_SPACE
  1

  0
ENDBLK
  5
24
  8
0
  0
BLOCK
 67
     1
  8
0
  2
$PAPER_SPACE
 70
     0
 10
0.0
 20
0.0
 30
0.0
  3
$PAPER_SPACE
  1

  0
ENDBLK
  5
20
 67
     1
  8
0
  0
ENDSEC
  0
SECTION
  2
ENTITIES
  0
LINE
  5
2B
  8
DAIKO
 10
0.9089129999999999
 20
16.256412999999998
 30
0.0
 11
8.0230409999999992
 21
20.589479000000001
 31
0.0
  0
LINE
  5
2C
  8
DAIKO
 10
23.076554000000002
 20
29.378487
 30
0.0
 11
8.02027
 21
20.594228000000001
 31
0.0
  0
LINE
  5
2D
  8
DAIKO
 10
10.268829
 20
0.213448
 30
0.0
 11
17.541816000000001
 21
4.2742290000000001
 31
0.0
  0
LINE
  5
2E
  8
DAIKO
 10
32.60087
 20
13.053739
 30
0.0
 11
17.544585999999999
 21
4.2694799999999997
 31
0.0
  0
LINE
  5
2F
  8
DAIKO
 10
18.839607999999998
 20
28.200009999999999
 30
0.0
 11
18.839607999999998
 21
29.941547
 31
0.0
  0
LINE
  5
30
  8
DAIKO
 10
17.119299000000002
 20
26.207142999999999
 30
0.0
 11
17.242466
 21
25.993811000000001
 31
0.0
  0
LINE
  5
31
  8
DAIKO
 10
20.261002999999999
 20
28.021006
 30
0.0
 11
20.384170000000001
 21
27.807675
 31
0.0
  0
LINE
  5
32
  8
DAIKO
 10
19.098731999999998
 20
30.426684999999999
 30
0.0
 11
19.098731999999998
 21
33.987909999999999
 31
0.0
  0
LINE
  5
33
  8
DAIKO
 10
19.468640000000001
 20
47.165669000000001
 30
0.0
 11
19.468640000000001
 21
43.191380000000002
 31
0.0
  0
LINE
  5
34
  8
DAIKO
 10
19.468640000000001
 20
43.191380000000002
 30
0.0
 11
17.409822999999999
 21
41.421151000000002
 31
0.0
  0
LINE
  5
35
  8
DAIKO
 10
13.781158
 20
39.803131
 30
0.0
 11
13.785192
 21
37.616003000000013
 31
0.0
  0
LINE
  5
36
  8
DAIKO
 10
13.597170999999999
 20
39.686971999999997
 30
0.0
 11
13.292987
 21
45.556874000000001
 31
0.0
  0
LINE
  5
37
  8
DAIKO
 10
19.468640000000001
 20
43.089077000000003
 30
0.0
 11
17.409822999999999
 21
41.318847999999988
 31
0.0
  0
LINE
  5
38
  8
DAIKO
 10
19.468640000000001
 20
47.165669000000001
 30
0.0
 11
23.078889
 21
47.165669000000001
 31
0.0
  0
LINE
  5
39
  8
DAIKO
 10
19.468640000000001
 20
43.191380000000002
 30
0.0
 11
23.180403999999999
 21
43.191380000000002
 31
0.0
  0
LINE
  5
3A
  8
DAIKO
 10
23.772314000000001
 20
47.165669000000001
 30
0.0
 11
23.772314000000001
 21
43.191380000000002
 31
0.0
  0
LINE
  5
3B
  8
DAIKO
 10
23.180403999999999
 20
47.165669000000001
 30
0.0
 11
23.180403999999999
 21
43.191380000000002
 31
0.0
  0
LINE
  5
3C
  8
DAIKO
 10
23.180403999999999
 20
47.165669000000001
 30
0.0
 11
23.772314000000001
 21
47.165669000000001
 31
0.0
  0
LINE
  5
3D
  8
DAIKO
 10
23.180403999999999
 20
43.191380000000002
 30
0.0
 11
23.772314000000001
 21
43.191380000000002
 31
0.0
  0
LINE
  5
3E
  8
DAIKO
 10
21.038488999999998
 20
41.840920999999987
 30
0.0
 11
21.038488999999998
 21
40.169717999999989
 31
0.0
  0
LINE
  5
3F
  8
DAIKO
 10
23.772314000000001
 20
40.169717999999989
 30
0.0
 11
21.038488999999998
 21
40.169717999999989
 31
0.0
  0
LINE
  5
40
  8
DAIKO
 10
21.038488999999998
 20
40.169717999999989
 30
0.0
 11
21.038488999999998
 21
37.615637
 31
0.0
  0
LINE
  5
41
  8
DAIKO
 10
24.614885999999998
 20
45.654837999999991
 30
0.0
 11
24.614885999999998
 21
41.680548999999999
 31
0.0
  0
LINE
  5
42
  8
DAIKO
 10
23.589393000000001
 20
42.843283
 30
0.0
 11
23.772314000000001
 21
42.843283
 31
0.0
  0
LINE
  5
43
  8
DAIKO
 10
23.557582
 20
40.482078000000001
 30
0.0
 11
23.725953000000001
 21
40.482078000000001
 31
0.0
  0
LINE
  5
44
  8
DAIKO
 10
23.078889
 20
47.437790999999997
 30
0.0
 11
24.614885999999998
 21
47.437790999999997
 31
0.0
  0
LINE
  5
45
  8
DAIKO
 10
24.614885999999998
 20
47.437790999999997
 30
0.0
 11
24.614885999999998
 21
45.654837999999991
 31
0.0
  0
LINE
  5
46
  8
DAIKO
 10
23.078889
 20
47.437790999999997
 30
0.0
 11
23.078889
 21
47.165669000000001
 31
0.0
  0
LINE
  5
47
  8
DAIKO
 10
23.078889
 20
47.165669000000001
 30
0.0
 11
23.180403999999999
 21
47.165669000000001
 31
0.0
  0
LINE
  5
48
  8
DAIKO
 10
16.792178
 20
48.59406400000001
 30
0.0
 11
18.027467999999999
 21
48.59406400000001
 31
0.0
  0
LINE
  5
49
  8
DAIKO
 10
16.792178
 20
49.340195999999999
 30
0.0
 11
18.027467999999999
 21
49.340195999999999
 31
0.0
  0
LINE
  5
4A
  8
DAIKO
 10
19.056877
 20
48.860948
 30
0.0
 11
19.056877
 21
47.273674
 31
0.0
  0
LINE
  5
4B
  8
DAIKO
 10
18.027467999999999
 20
49.340195999999999
 30
0.0
 11
18.027467999999999
 21
48.59406400000001
 31
0.0
  0
LINE
  5
4C
  8
DAIKO
 10
16.792178
 20
49.340195999999999
 30
0.0
 11
16.792178
 21
48.59406400000001
 31
0.0
  0
LINE
  5
4D
  8
DAIKO
 10
15.76277
 20
48.860948
 30
0.0
 11
15.76277
 21
47.318789000000002
 31
0.0
  0
LINE
  5
4E
  8
DAIKO
 10
15.730128000000001
 20
33.987909999999999
 30
0.0
 11
15.730128000000001
 21
30.426684999999999
 31
0.0
  0
LINE
  5
4F
  8
DAIKO
 10
15.730128000000001
 20
37.615637
 30
0.0
 11
15.730128000000001
 21
33.728786999999997
 31
0.0
  0
LINE
  5
50
  8
DAIKO
 10
19.098731999999998
 20
33.728786999999997
 30
0.0
 11
19.098731999999998
 21
37.615637
 31
0.0
  0
LINE
  5
51
  8
DAIKO
 10
15.730128000000001
 20
30.426684999999999
 30
0.0
 11
15.730128000000001
 21
28.028072999999999
 31
0.0
  0
LINE
  5
52
  8
DAIKO
 10
17.515225000000001
 20
26.687434
 30
0.0
 11
16.873894
 21
27.798252000000002
 31
0.0
  0
LINE
  5
53
  8
DAIKO
 10
19.056877
 20
47.273674
 30
0.0
 11
19.468640000000001
 21
47.165669000000001
 31
0.0
  0
LINE
  5
54
  8
DAIKO
 10
18.839607999999998
 20
28.200009999999999
 30
0.0
 11
16.046484
 21
28.200009999999999
 31
0.0
  0
LINE
  5
55
  8
DAIKO
 10
17.690906999999999
 20
26.861757000000001
 30
0.0
 11
17.035513999999999
 21
27.996931
 31
0.0
  0
LINE
  5
56
  8
DAIKO
 10
19.408287000000001
 20
27.853286000000001
 30
0.0
 11
18.853069999999999
 21
28.81495
 31
0.0
  0
LINE
  5
57
  8
DAIKO
 10
19.097377000000002
 20
28.87041
 30
0.0
 11
19.647095
 21
27.91827
 31
0.0
  0
LINE
  5
58
  8
DAIKO
 10
19.097377000000002
 20
28.87041
 30
0.0
 11
18.853069999999999
 21
28.81495
 31
0.0
  0
ARC
  5
59
  8
DAIKO
 10
20.671544999999998
 20
23.682199000000001
 30
0.0
 40
4.358187
 50
95.405291999999989
 51
103.595353
  0
ARC
  5
5A
  8
DAIKO
 10
20.671544999999998
 20
23.682199000000001
 30
0.0
 40
4.358187
 50
103.595353
 51
144.594708
  0
ARC
  5
5B
  8
DAIKO
 10
19.42309599999999
 20
29.941662999999998
 30
0.0
 40
0.583488
 50
123.773172
 51
180.01145199999999
  0
ARC
  5
5C
  8
DAIKO
 10
22.839047999999998
 20
41.680548999999999
 30
0.0
 40
1.7758359999999991
 50
0.0
 51
58.295679999999997
  0
ARC
  5
5D
  8
DAIKO
 10
22.839047999999998
 20
45.654837999999991
 30
0.0
 40
1.7758359999999991
 50
0.0
 51
58.295679999999997
  0
ARC
  5
5E
  8
DAIKO
 10
22.839047999999998
 20
41.680548999999999
 30
0.0
 40
1.7758359999999991
 50
301.70432
 51
0.0
  0
ARC
  5
5F
  8
DAIKO
 10
22.247140000000002
 20
41.680548999999999
 30
0.0
 40
1.7758359999999991
 50
40.900908000000001
 51
58.295679999999997
  0
ARC
  5
60
  8
DAIKO
 10
22.247140000000002
 20
41.680548999999999
 30
0.0
 40
1.7758359999999991
 50
301.70432
 51
317.55537600000002
  0
ARC
  5
61
  8
DAIKO
 10
22.839047999999998
 20
41.680548999999999
 30
0.0
 40
1.490950999999999
 50
306.50254699999999
 51
51.247810999999992
  0
ARC
  5
62
  8
DAIKO
 10
17.409822999999999
 20
39.747943999999997
 30
0.0
 40
8.1632090000000002
 50
78.359782999999993
 51
101.64021700000001
  0
ARC
  5
63
  8
DAIKO
 10
17.409822999999999
 20
40.074265999999987
 30
0.0
 40
8.1632090000000002
 50
78.359782999999993
 51
101.64021700000001
  0
ARC
  5
64
  8
DAIKO
 10
17.409822999999999
 20
40.865623999999997
 30
0.0
 40
8.1632090000000002
 50
94.339263000000017
 51
101.64021700000001
  0
ARC
  5
65
  8
DAIKO
 10
17.409822999999999
 20
40.865623999999997
 30
0.0
 40
8.1632090000000002
 50
78.359782999999993
 51
85.660736999999997
  0
ARC
  5
66
  8
DAIKO
 10
14.462593999999999
 20
45.520834999999998
 30
0.0
 40
1.170162999999999
 50
139.08091200000001
 51
178.23513399999999
  0
ARC
  5
67
  8
DAIKO
 10
16.128740000000001
 20
43.582514000000003
 30
0.0
 40
3.717543
 50
106.143738
 51
133.31701699999999
  0
ARC
  5
68
  8
DAIKO
 10
17.315664999999999
 20
39.31430000000001
 30
0.0
 40
8.1476039999999994
 50
77.660236999999995
 51
105.815703
  0
ARC
  5
69
  8
DAIKO
 10
20.113016999999999
 20
41.757247999999997
 30
0.0
 40
0.9292469999999999
 50
5.166161999999999
 51
46.664054000000007
  0
ARC
  5
6A
  8
DAIKO
 10
18.548836999999999
 20
39.71032000000001
 30
0.0
 40
3.501719
 50
51.03799999999999
 51
74.771337000000003
  0
ARC
  5
6B
  8
DAIKO
 10
17.326543000000001
 20
33.564087999999998
 30
0.0
 40
7.8575049999999997
 50
89.392719999999997
 51
106.96986800000001
  0
ARC
  5
6C
  8
DAIKO
 10
15.840389999999999
 20
38.165618000000002
 30
0.0
 40
3.0235880000000002
 50
105.484048
 51
128.339325
  0
ARC
  5
6D
  8
DAIKO
 10
14.497529999999999
 20
39.802232000000011
 30
0.0
 40
0.9077069999999999
 50
125.936623
 51
217.88823099999999
  0
ARC
  5
6E
  8
DAIKO
 10
14.642512
 20
39.746720000000003
 30
0.0
 40
0.8631990000000001
 50
135.47662299999999
 51
176.25301300000001
  0
ARC
  5
6F
  8
DAIKO
 10
16.134806999999999
 20
37.955059000000013
 30
0.0
 40
3.1918349999999989
 50
105.654077
 51
131.32649499999999
  0
ARC
  5
70
  8
DAIKO
 10
17.395159
 20
33.422614000000003
 30
0.0
 40
7.8962469999999989
 50
89.893589000000006
 51
105.586007
  0
ARC
  5
71
  8
DAIKO
 10
20.354897999999999
 20
37.616796999999998
 30
0.0
 40
0.683591
 50
327.59271000000001
 51
36.182983
  0
ARC
  5
72
  8
DAIKO
 10
19.061733
 20
38.776536999999998
 30
0.0
 40
2.4139140000000001
 50
289.90521200000001
 51
320.78665599999999
  0
ARC
  5
73
  8
DAIKO
 10
17.888114000000002
 20
41.794108999999999
 30
0.0
 40
5.6512960000000003
 50
282.369731
 51
290.67703599999999
  0
ARC
  5
74
  8
DAIKO
 10
18.550418000000001
 20
38.899009
 30
0.0
 40
2.2235800000000001
 50
284.275825
 51
308.55921799999999
  0
ARC
  5
75
  8
DAIKO
 10
19.654862999999999
 20
37.60706900000001
 30
0.0
 40
0.528135
 50
302.21715599999999
 51
45.302195000000012
  0
ARC
  5
76
  8
DAIKO
 10
18.434740999999999
 20
36.164495000000002
 30
0.0
 40
2.4162469999999998
 50
48.798782000000003
 51
74.712862999999999
  0
ARC
  5
77
  8
DAIKO
 10
17.394779
 20
32.131137000000003
 30
0.0
 40
6.5813600000000001
 50
75.237451000000007
 51
94.356428999999991
  0
ARC
  5
78
  8
DAIKO
 10
16.966151
 20
34.753324999999997
 30
0.0
 40
3.9408019999999988
 50
91.036651000000006
 51
115.88944100000001
  0
ARC
  5
79
  8
DAIKO
 10
15.633531
 20
37.285795
 30
0.0
 40
1.0846290000000001
 50
110.96495
 51
149.294816
  0
ARC
  5
7A
  8
DAIKO
 10
15.131106000000001
 20
37.614697999999997
 30
0.0
 40
0.485407
 50
152.39412100000001
 51
217.766198
  0
ARC
  5
7B
  8
DAIKO
 10
16.158783
 20
38.607790999999999
 30
0.0
 40
1.912358
 50
222.43521799999999
 51
257.04708900000008
  0
ARC
  5
7C
  8
DAIKO
 10
16.490238999999999
 20
40.338724999999997
 30
0.0
 40
4.1371669999999989
 50
239.752354
 51
259.41303499999998
  0
ARC
  5
7D
  8
DAIKO
 10
15.076245
 20
37.998420000000003
 30
0.0
 40
1.4038429999999991
 50
211.34515099999999
 51
241.49070699999999
  0
ARC
  5
7E
  8
DAIKO
 10
14.488128
 20
37.616003000000013
 30
0.0
 40
0.7029360000000001
 50
145.61226500000001
 51
209.660192
  0
ARC
  5
7F
  8
DAIKO
 10
15.569293
 20
36.675452
 30
0.0
 40
2.1327979999999989
 50
115.225638
 51
141.16063
  0
ARC
  5
80
  8
DAIKO
 10
17.27394
 20
32.317810999999999
 30
0.0
 40
6.8086669999999989
 50
93.460094999999995
 51
112.573318
  0
ARC
  5
81
  8
DAIKO
 10
17.461069999999999
 20
31.628288999999999
 30
0.0
 40
7.5096289999999994
 50
75.516669999999991
 51
94.567782999999991
  0
ARC
  5
82
  8
DAIKO
 10
18.559987
 20
35.422361000000002
 30
0.0
 40
3.563153999999999
 50
57.414204000000012
 51
77.367863000000014
  0
ARC
  5
83
  8
DAIKO
 10
19.716463000000001
 20
37.189573000000003
 30
0.0
 40
1.4514689999999999
 50
34.916443999999998
 51
58.309399999999989
  0
ARC
  5
84
  8
DAIKO
 10
18.750501
 20
37.569246999999997
 30
0.0
 40
0.351306
 50
7.588203
 51
61.825375000000001
  0
ARC
  5
85
  8
DAIKO
 10
17.754246999999999
 20
35.719757999999999
 30
0.0
 40
2.452049999999999
 50
61.709567000000007
 51
82.119108999999995
  0
ARC
  5
86
  8
DAIKO
 10
17.415611999999999
 20
33.782487000000003
 30
0.0
 40
4.4180080000000004
 50
81.213736999999995
 51
101.64434199999999
  0
ARC
  5
87
  8
DAIKO
 10
16.732948
 20
36.632689999999997
 30
0.0
 40
1.4916009999999991
 50
98.056563999999995
 51
124.41720100000001
  0
ARC
  5
88
  8
DAIKO
 10
16.022617
 20
37.602198999999999
 30
0.0
 40
0.292799
 50
116.959653
 51
177.369282
  0
ARC
  5
89
  8
DAIKO
 10
17.347767999999999
 20
29.197703000000011
 30
0.0
 40
4.857632999999999
 50
68.871786999999983
 51
109.363455
  0
ARC
  5
8A
  8
DAIKO
 10
17.845405
 20
26.314146000000001
 30
0.0
 40
2.255272999999999
 50
63.842856999999988
 51
78.544737999999995
  0
ARC
  5
8B
  8
DAIKO
 10
17.417601999999999
 20
24.084589000000001
 30
0.0
 40
4.5254419999999991
 50
78.842448000000005
 51
90.040165999999985
  0
ARC
  5
8C
  8
DAIKO
 10
17.358920000000001
 20
24.623123
 30
0.0
 40
3.9872930000000002
 50
89.202329000000006
 51
102.13626499999999
  0
ARC
  5
8D
  8
DAIKO
 10
16.761945999999998
 20
26.958228999999999
 30
0.0
 40
1.5815879999999991
 50
98.775919000000002
 51
120.998434
  0
ARC
  5
8E
  8
DAIKO
 10
16.227668999999999
 20
27.81958400000001
 30
0.0
 40
0.568273
 50
119.55025500000001
 51
139.95513800000001
  0
ARC
  5
8F
  8
DAIKO
 10
15.971593
 20
28.027820999999999
 30
0.0
 40
0.238318
 50
138.67075600000001
 51
223.584934
  0
ARC
  5
90
  8
DAIKO
 10
16.586290999999999
 20
28.724443999999998
 30
0.0
 40
1.166652
 50
227.55683500000001
 51
253.75804500000001
  0
ARC
  5
91
  8
DAIKO
 10
17.271436999999999
 20
30.935082000000001
 30
0.0
 40
3.4809160000000001
 50
253.107876
 51
266.66857900000002
  0
ARC
  5
92
  8
DAIKO
 10
16.851790000000001
 20
29.249106999999999
 30
0.0
 40
1.6152420000000001
 50
246.32556099999999
 51
273.9804180000001
  0
ARC
  5
93
  8
DAIKO
 10
16.359659000000001
 20
28.216387999999998
 30
0.0
 40
0.4732000000000001
 50
216.1143669999999
 51
250.69308899999999
  0
ARC
  5
94
  8
DAIKO
 10
16.158697
 20
28.030121999999999
 30
0.0
 40
0.203602
 50
123.445105
 51
207.06417999999999
  0
ARC
  5
95
  8
DAIKO
 10
16.999801999999999
 20
28.7879
 30
0.0
 40
0.997625
 50
216.10661500000001
 51
262.74952100000002
  0
ARC
  5
96
  8
DAIKO
 10
17.661963
 20
27.322255999999999
 30
0.0
 40
0.9206649999999998
 50
132.87732500000001
 51
148.867887
  0
ARC
  5
97
  8
DAIKO
 10
17.661963
 20
27.322255999999999
 30
0.0
 40
0.9206649999999998
 50
107.56202999999999
 51
132.87732500000001
  0
ARC
  5
98
  8
DAIKO
 10
6.9075289999999994
 20
13.724079
 30
0.0
 40
6.9075289999999994
 50
167.244292
 51
189.13
  0
ARC
  5
99
  8
DAIKO
 10
13.629217000000001
 20
14.804328999999999
 30
0.0
 40
13.715467
 50
189.13
 51
201.16546299999999
  0
ARC
  5
9A
  8
DAIKO
 10
23.201004999999999
 20
18.510344
 30
0.0
 40
23.979662000000001
 50
201.16546299999999
 51
219.355512
  0
ARC
  5
9B
  8
DAIKO
 10
15.264461000000001
 20
12.001507
 30
0.0
 40
13.715467
 50
219.355512
 51
231.39097400000011
  0
ARC
  5
9C
  8
DAIKO
 10
11.01629
 20
6.681633999999999
 30
0.0
 40
6.9075289999999994
 50
231.39097400000011
 51
253.27668199999999
  0
ARC
  5
9D
  8
DAIKO
 10
9.4794110000000007
 20
1.566514999999999
 30
0.0
 40
1.566514999999999
 50
253.27668199999999
 51
347.24429199999997
  0
ARC
  5
9E
  8
DAIKO
 10
4.270211999999999
 20
2.7457820000000002
 30
0.0
 40
6.9075289999999994
 50
347.24429199999997
 51
9.1300000000000008
  0
ARC
  5
9F
  8
DAIKO
 10
-2.451474999999999
 20
1.6655329999999999
 30
0.0
 40
13.715467
 50
9.1300000000000008
 51
21.165462999999999
  0
ARC
  5
A0
  8
DAIKO
 10
-12.023263999999999
 20
-2.040483
 30
0.0
 40
23.979662000000001
 50
21.165462999999999
 51
39.355511999999997
  0
ARC
  5
A1
  8
DAIKO
 10
-4.0867199999999988
 20
4.4683539999999988
 30
0.0
 40
13.715467
 50
39.355511999999997
 51
51.390974
  0
ARC
  5
A2
  8
DAIKO
 10
0.161452
 20
9.7882269999999991
 30
0.0
 40
6.9075289999999994
 50
51.390974
 51
73.276681999999994
  0
ARC
  5
A3
  8
DAIKO
 10
1.698329999999999
 20
14.903346000000001
 30
0.0
 40
1.566514999999999
 50
73.276681999999994
 51
167.244292
  0
ARC
  5
A4
  8
DAIKO
 10
16.613786999999999
 20
5.7098709999999988
 30
0.0
 40
1.706081999999999
 50
300.0
 51
345.83880499999998
  0
ARC
  5
A5
  8
DAIKO
 10
11.528235
 20
6.9930490000000001
 30
0.0
 40
6.9510199999999989
 50
345.83880499999998
 51
8.0870689999999996
  0
ARC
  5
A6
  8
DAIKO
 10
5.0048979999999998
 20
6.0661420000000001
 30
0.0
 40
13.539880999999999
 50
8.0870689999999996
 51
20.540202000000001
  0
ARC
  5
A7
  8
DAIKO
 10
-4.2520509999999989
 20
2.5977060000000001
 30
0.0
 40
23.425280999999998
 50
20.540202000000001
 51
39.459797999999999
  0
ARC
  5
A8
  8
DAIKO
 10
3.380177999999999
 20
8.8802399999999988
 30
0.0
 40
13.539880999999999
 50
39.459797999999999
 51
51.912931
  0
ARC
  5
A9
  8
DAIKO
 10
7.4445709999999998
 20
14.066163
 30
0.0
 40
6.9510199999999989
 50
51.912931
 51
74.161194999999992
  0
ARC
  5
AA
  8
DAIKO
 10
8.8760820000000002
 20
19.111968999999998
 30
0.0
 40
1.706081999999999
 50
74.161194999999992
 51
120.0
  0
ARC
  5
AB
  8
DAIKO
 10
31.559156000000002
 20
14.550739999999999
 30
0.0
 40
1.8237819999999989
 50
304.83276799999999
 51
345.09018500000002
  0
ARC
  5
AC
  8
DAIKO
 10
26.581748000000001
 20
15.782056000000001
 30
0.0
 40
6.9510199999999989
 50
345.83880499999998
 51
8.0870689999999996
  0
ARC
  5
AD
  8
DAIKO
 10
20.058411
 20
14.85515
 30
0.0
 40
13.539880999999999
 50
8.0870689999999996
 51
20.540202000000001
  0
ARC
  5
AE
  8
DAIKO
 10
10.801462000000001
 20
11.386714
 30
0.0
 40
23.425280999999998
 50
20.540202000000001
 51
39.459797999999999
  0
ARC
  5
AF
  8
DAIKO
 10
18.433689999999999
 20
17.669248
 30
0.0
 40
13.539880999999999
 50
39.459797999999999
 51
51.912931
  0
ARC
  5
B0
  8
DAIKO
 10
22.498083000000001
 20
22.855170999999999
 30
0.0
 40
6.9510199999999989
 50
51.912931
 51
74.161194999999992
  0
ARC
  5
B1
  8
DAIKO
 10
23.929594000000002
 20
27.900977000000001
 30
0.0
 40
1.706081999999999
 50
74.161194999999992
 51
120.0
  0
TEXT
  5
B2
  8
DAIKO
 10
0.0
 20
-11.0
 30
0.0
 40
3.0
  1
DSL-4986FW
  7
BIGFONT
  0
ENDSEC
  0
EOF
