  0
SECTION
  2
HEADER
  9
$EXTMIN
 10
0.000000
 20
-23.000000
 30
0.000000
  9
$EXTMAX
 10
49.710764
 20
23.047110
 30
0.000000
  0
ENDSEC
  0
SECTION
  2
TABLES
  0
TABLE
  2
LTYPE
 70
    10
  0
LTYPE
  2
ByBlock
 70
     0
  3

 72
    65
 73
     0
 40
0.000000
  0
LTYPE
  2
ByLayer
 70
     0
  3

 72
    65
 73
     0
 40
0.000000
  0
LTYPE
  2
CENTER_DASH_DASH
 70
     0
  3
Center_Dash_Dash
 72
    65
 73
     6
 40
22.000000
 49
12.000000
 49
-3.000000
 49
0.500000
 49
-3.000000
 49
0.500000
 49
-3.000000
  0
LTYPE
  2
CONTINUOUS
 70
     0
  3
Solid line
 72
    65
 73
     0
 40
0.000000
  0
LTYPE
  2
DASHED
 70
     0
  3
Dashed
 72
    65
 73
     2
 40
15.000000
 49
12.000000
 49
-3.000000
  0
LTYPE
  2
DASH_CENTER
 70
     0
  3
Dash_Center
 72
    65
 73
     4
 40
36.000000
 49
24.000000
 49
-3.000000
 49
6.000000
 49
-3.000000
  0
LTYPE
  2
DOTTED
 70
     0
  3
Dotted
 72
    65
 73
     2
 40
3.500000
 49
0.500000
 49
-3.000000
  0
LTYPE
  2
DOT_CENTER
 70
     0
  3
Dot_Center
 72
    65
 73
     4
 40
2.000000
 49
1.250000
 49
-0.250000
 49
0.250000
 49
-0.250000
  0
LTYPE
  2
LONG_DASHED
 70
     0
  3
Long_Dashed
 72
    65
 73
     2
 40
2.000000
 49
1.500000
 49
-0.500000
  0
LTYPE
  2
PHANTOM
 70
     0
  3
Phantom
 72
    65
 73
     6
 40
2.500000
 49
1.250000
 49
-0.250000
 49
0.250000
 49
-0.250000
 49
0.250000
 49
-0.250000
  0
ENDTAB
  0
TABLE
  2
STYLE
 70
     3
  0
STYLE
  2
BIGFONT
 70
     0
 40
1.000000
 41
1.000000
 50
0.000000
 71
     0
 42
0.000000
  3
txt
  4
bigfont
  0
STYLE
  2
CONVERTER_1
 70
     0
 40
0.000000
 41
0.900000
 50
0.000000
 71
     0
 42
0.000000
  3
txt.shx
  4

  0
STYLE
  2
STANDARD
 70
     0
 40
0.000000
 41
1.000000
 50
0.000000
 71
     0
 42
0.000000
  3
txt
  4

  0
ENDTAB
  0
TABLE
  2
LAYER
 70
     1
  0
LAYER
  2
daiko
 70
     0
 62
     7
  6
CONTINUOUS
  0
ENDTAB
  0
ENDSEC
  0
SECTION
  2
BLOCKS
  0
BLOCK
  8
daiko
  2
TOP
 70
     0
 10
0.000000
 20
0.000000
 30
0.000000
  3
TOP
  1

  0
ARC
  8
daiko
 10
5.621369
 20
4.705201
 30
0.000000
 40
0.191945
 50
359.533398
 51
97.492486
  0
ARC
  8
daiko
 10
48.458511
 20
20.017509
 30
0.000000
 40
0.173297
 50
357.280192
 51
74.280609
  0
ARC
  8
daiko
 10
2.047494
 20
-1.010295
 30
0.000000
 40
8.882179
 50
67.492041
 51
93.778644
  0
ARC
  8
daiko
 10
5.208969
 20
6.704910
 30
0.000000
 40
0.545408
 50
358.503806
 51
64.042519
  0
ARC
  8
daiko
 10
5.496817
 20
5.290150
 30
0.000000
 40
0.258155
 50
291.623207
 51
4.457583
  0
ARC
  8
daiko
 10
47.991508
 20
21.485792
 30
0.000000
 40
0.545408
 50
358.503806
 51
64.042519
  0
ARC
  8
daiko
 10
44.830032
 20
13.770587
 30
0.000000
 40
8.882179
 50
67.492041
 51
93.408909
  0
ARC
  8
daiko
 10
48.279356
 20
20.409601
 30
0.000000
 40
0.258155
 50
291.623207
 51
4.457583
  0
ARC
  8
daiko
 10
0.518897
 20
1.164306
 30
0.000000
 40
0.261061
 50
266.941131
 51
283.507140
  0
ARC
  8
daiko
 10
0.515719
 20
1.004952
 30
0.000000
 40
0.286346
 50
260.687190
 51
282.946645
  0
ARC
  8
daiko
 10
48.209060
 20
21.550191
 30
0.000000
 40
0.454463
 50
358.504679
 51
64.057748
  0
ARC
  8
daiko
 10
44.511272
 20
22.403118
 30
0.000000
 40
0.290759
 50
93.881292
 51
125.552815
  0
ARC
  8
daiko
 10
45.041453
 20
14.538140
 30
0.000000
 40
8.173587
 50
89.428329
 51
93.857376
  0
ARC
  8
daiko
 10
44.980009
 20
13.673279
 30
0.000000
 40
9.039172
 50
67.632371
 51
89.093577
  0
ARC
  8
daiko
 10
48.181275
 20
21.541952
 30
0.000000
 40
0.545354
 50
358.504591
 51
64.057819
  0
ARC
  8
daiko
 10
44.942065
 20
13.490957
 30
0.000000
 40
9.149710
 50
67.741329
 51
84.192912
  0
ARC
  8
daiko
 10
49.176993
 20
21.838389
 30
0.000000
 40
0.545354
 50
358.504591
 51
64.057819
  0
ARC
  8
daiko
 10
45.943483
 20
13.854537
 30
0.000000
 40
9.157966
 50
67.720038
 51
86.121346
  0
ARC
  8
daiko
 10
4.023699
 20
6.351705
 30
0.000000
 40
0.545354
 50
358.504591
 51
64.057819
  0
ARC
  8
daiko
 10
5.019417
 20
6.648142
 30
0.000000
 40
0.545354
 50
358.504591
 51
64.057819
  0
ARC
  8
daiko
 10
0.790188
 20
-1.632148
 30
0.000000
 40
9.157966
 50
67.720038
 51
86.121346
  0
ARC
  8
daiko
 10
1.818151
 20
-1.220531
 30
0.000000
 40
9.039172
 50
67.632371
 51
89.093577
  0
ARC
  8
daiko
 10
4.905416
 20
3.617547
 30
0.000000
 40
0.641083
 50
171.534796
 51
221.622988
  0
ARC
  8
daiko
 10
5.142032
 20
6.684613
 30
0.000000
 40
0.454463
 50
358.504679
 51
64.057748
  0
ARC
  8
daiko
 10
1.089241
 20
1.550283
 30
0.000000
 40
1.422202
 50
80.001263
 51
102.849708
  0
ARC
  8
daiko
 10
1.028500
 20
3.074531
 30
0.000000
 40
0.059933
 50
80.107482
 51
89.444229
  0
ARC
  8
daiko
 10
1.031819
 20
3.074591
 30
0.000000
 40
0.059932
 50
92.617925
 51
101.954738
  0
ARC
  8
daiko
 10
0.022644
 20
2.689045
 30
0.000000
 40
0.149493
 50
82.143370
 51
85.777172
  0
ARC
  8
daiko
 10
0.032320
 20
2.814468
 30
0.000000
 40
0.023702
 50
86.780279
 51
97.142826
  0
ARC
  8
daiko
 10
0.034569
 20
2.803373
 30
0.000000
 40
0.035001
 50
98.536942
 51
114.119864
  0
ARC
  8
daiko
 10
0.026776
 20
2.822436
 30
0.000000
 40
0.014433
 50
116.810249
 51
137.731967
  0
ARC
  8
daiko
 10
0.026003
 20
2.821734
 30
0.000000
 40
0.014371
 50
133.581690
 51
158.996517
  0
ARC
  8
daiko
 10
0.031224
 20
2.820689
 30
0.000000
 40
0.019640
 50
161.611252
 51
180.389625
  0
ARC
  8
daiko
 10
45.154235
 20
25.928324
 30
0.000000
 40
3.221722
 50
271.817738
 51
283.368666
  0
ARC
  8
daiko
 10
44.312417
 20
22.397162
 30
0.000000
 40
0.240120
 50
92.514099
 51
107.757981
  0
ARC
  8
daiko
 10
1.879595
 20
-0.355671
 30
0.000000
 40
8.173587
 50
89.428329
 51
93.857376
  0
ARC
  8
daiko
 10
1.392046
 20
7.375634
 30
0.000000
 40
0.428323
 50
98.365301
 51
115.941101
  0
ARC
  8
daiko
 10
1.340880
 20
7.491711
 30
0.000000
 40
0.301597
 50
116.846655
 51
145.232239
  0
ARC
  8
daiko
 10
1.434251
 20
7.410541
 30
0.000000
 40
0.424798
 50
143.419974
 51
161.912194
  0
ARC
  8
daiko
 10
1.563030
 20
7.383684
 30
0.000000
 40
0.555739
 50
163.402491
 51
179.625947
  0
ARC
  8
daiko
 10
1.415083
 20
7.427307
 30
0.000000
 40
0.078910
 50
127.106825
 51
180.000000
  0
ARC
  8
daiko
 10
1.407064
 20
7.444118
 30
0.000000
 40
0.060781
 50
87.546545
 51
130.641033
  0
ARC
  8
daiko
 10
2.134726
 20
7.763927
 30
0.000000
 40
0.035201
 50
295.672995
 51
72.275353
  0
ARC
  8
daiko
 10
1.646728
 20
8.927843
 30
0.000000
 40
1.297235
 50
290.231059
 51
292.826300
  0
ARC
  8
daiko
 10
1.984569
 20
7.171274
 30
0.000000
 40
0.646518
 50
75.591741
 51
85.902773
  0
ARC
  8
daiko
 10
1.437731
 20
2.610938
 30
0.000000
 40
0.101579
 50
178.847521
 51
226.390020
  0
ARC
  8
daiko
 10
1.026224
 20
2.658784
 30
0.000000
 40
0.068573
 50
140.183696
 51
237.334389
  0
LINE
  8
daiko
 10
5.596341
 20
5.051619
 30
0.000000
 11
48.374486
 21
20.169613
 31
0.000000
  0
LINE
  8
daiko
 10
44.239181
 20
22.625841
 30
0.000000
 11
1.267031
 21
7.788190
 31
0.000000
  0
LINE
  8
daiko
 10
0.425272
 20
0.879891
 30
0.000000
 11
0.425272
 21
0.738620
 31
0.000000
  0
LINE
  8
daiko
 10
1.336173
 20
7.427307
 30
0.000000
 11
1.336173
 21
2.612981
 31
0.000000
  0
LINE
  8
daiko
 10
0.957718
 20
2.655762
 30
0.000000
 11
0.957718
 21
0.529833
 31
0.000000
  0
LINE
  8
daiko
 10
0.011583
 20
2.820555
 30
0.000000
 11
0.011583
 21
0.897782
 31
0.000000
  0
LINE
  8
daiko
 10
1.007303
 20
7.387312
 30
0.000000
 11
1.007303
 21
3.129620
 31
0.000000
  0
LINE
  8
daiko
 10
5.813308
 20
0.319799
 30
0.000000
 11
5.813308
 21
4.703638
 31
0.000000
  0
LINE
  8
daiko
 10
5.596190
 20
0.279654
 30
0.000000
 11
5.659416
 21
0.269018
 31
0.000000
  0
LINE
  8
daiko
 10
5.596341
 20
4.895507
 30
0.000000
 11
48.507686
 21
20.007534
 31
0.000000
  0
LINE
  8
daiko
 10
5.659416
 20
0.269018
 30
0.000000
 11
48.631613
 21
16.300813
 31
0.000000
  0
LINE
  8
daiko
 10
48.631613
 20
16.300813
 30
0.000000
 11
48.631613
 21
20.009286
 31
0.000000
  0
LINE
  8
daiko
 10
48.505462
 20
20.184325
 30
0.000000
 11
48.426642
 21
20.197585
 31
0.000000
  0
LINE
  8
daiko
 10
5.754191
 20
5.310215
 30
0.000000
 11
5.754191
 21
6.690669
 31
0.000000
  0
LINE
  8
daiko
 10
48.536730
 20
20.429665
 30
0.000000
 11
48.536730
 21
21.471551
 31
0.000000
  0
LINE
  8
daiko
 10
0.579872
 20
0.910466
 30
0.000000
 11
0.769533
 21
0.966930
 31
0.000000
  0
LINE
  8
daiko
 10
0.456766
 20
0.724503
 30
0.000000
 11
0.469381
 21
0.722381
 31
0.000000
  0
LINE
  8
daiko
 10
0.579872
 20
0.725886
 30
0.000000
 11
0.769533
 21
0.782350
 31
0.000000
  0
LINE
  8
daiko
 10
48.726443
 20
21.527720
 30
0.000000
 11
48.726443
 21
16.329115
 31
0.000000
  0
LINE
  8
daiko
 10
48.726443
 20
16.329115
 30
0.000000
 11
48.663368
 21
16.339726
 31
0.000000
  0
LINE
  8
daiko
 10
48.663368
 20
16.339726
 30
0.000000
 11
48.663368
 21
21.538331
 31
0.000000
  0
LINE
  8
daiko
 10
48.663368
 20
16.339726
 30
0.000000
 11
48.631613
 21
16.330273
 31
0.000000
  0
LINE
  8
daiko
 10
49.722162
 20
21.824157
 30
0.000000
 11
49.722162
 21
16.625552
 31
0.000000
  0
LINE
  8
daiko
 10
48.726443
 20
16.329115
 30
0.000000
 11
49.722162
 21
16.625552
 31
0.000000
  0
LINE
  8
daiko
 10
45.899148
 20
22.793903
 30
0.000000
 11
46.562960
 21
22.991528
 31
0.000000
  0
LINE
  8
daiko
 10
3.360859
 20
1.549154
 30
0.000000
 11
1.655030
 21
1.041309
 31
0.000000
  0
LINE
  8
daiko
 10
1.636064
 20
1.044499
 30
0.000000
 11
1.655030
 21
1.041309
 31
0.000000
  0
LINE
  8
daiko
 10
4.568867
 20
-0.055582
 30
0.000000
 11
0.957718
 21
0.529833
 31
0.000000
  0
LINE
  8
daiko
 10
1.367667
 20
2.537389
 30
0.000000
 11
0.989213
 21
2.601057
 31
0.000000
  0
LINE
  8
daiko
 10
1.493819
 20
0.993314
 30
0.000000
 11
1.493819
 21
3.700553
 31
0.000000
  0
LINE
  8
daiko
 10
3.360859
 20
0.679219
 30
0.000000
 11
1.493819
 21
0.993314
 31
0.000000
  0
LINE
  8
daiko
 10
3.360859
 20
3.386459
 30
0.000000
 11
3.360859
 21
0.679219
 31
0.000000
  0
LINE
  8
daiko
 10
1.493819
 20
3.700553
 30
0.000000
 11
3.360859
 21
3.386459
 31
0.000000
  0
LINE
  8
daiko
 10
4.568867
 20
6.337472
 30
0.000000
 11
4.568867
 21
-0.055582
 31
0.000000
  0
LINE
  8
daiko
 10
5.564585
 20
6.633910
 30
0.000000
 11
5.564585
 21
0.240856
 31
0.000000
  0
LINE
  8
daiko
 10
5.564585
 20
0.240856
 30
0.000000
 11
4.568867
 21
-0.055582
 31
0.000000
  0
LINE
  8
daiko
 10
5.564586
 20
0.270245
 30
0.000000
 11
5.596341
 21
0.279699
 31
0.000000
  0
LINE
  8
daiko
 10
5.596341
 20
0.279699
 30
0.000000
 11
5.596341
 21
6.672753
 31
0.000000
  0
LINE
  8
daiko
 10
1.493819
 20
0.993314
 30
0.000000
 11
1.636064
 21
1.035662
 31
0.000000
  0
LINE
  8
daiko
 10
0.295381
 20
2.794690
 30
0.000000
 11
0.772952
 21
2.936868
 31
0.000000
  0
LINE
  8
daiko
 10
0.043078
 20
2.837135
 30
0.000000
 11
0.295381
 21
2.794690
 31
0.000000
  0
LINE
  8
daiko
 10
1.038796
 20
3.133572
 30
0.000000
 11
1.336173
 21
3.083544
 31
0.000000
  0
LINE
  8
daiko
 10
0.973554
 20
2.702693
 30
0.000000
 11
1.336173
 21
2.810649
 31
0.000000
  0
LINE
  8
daiko
 10
0.295381
 20
0.841221
 30
0.000000
 11
0.295381
 21
2.794690
 31
0.000000
  0
LINE
  8
daiko
 10
0.295381
 20
0.841221
 30
0.000000
 11
0.043078
 21
0.883666
 31
0.000000
  0
LINE
  8
daiko
 10
0.772952
 20
0.983399
 30
0.000000
 11
0.295381
 21
0.841221
 31
0.000000
  0
LINE
  8
daiko
 10
1.019405
 20
3.133223
 30
0.000000
 11
0.023687
 21
2.836786
 31
0.000000
  0
LINE
  8
daiko
 10
0.043078
 20
0.883666
 30
0.000000
 11
0.031684
 21
0.886007
 31
0.000000
  0
LINE
  8
daiko
 10
0.031684
 20
0.886007
 30
0.000000
 11
0.022549
 21
0.888801
 31
0.000000
  0
LINE
  8
daiko
 10
0.022549
 20
0.888801
 30
0.000000
 11
0.016026
 21
0.891940
 31
0.000000
  0
LINE
  8
daiko
 10
0.957719
 20
1.012919
 30
0.000000
 11
0.873338
 21
1.003865
 31
0.000000
  0
LINE
  8
daiko
 10
0.873338
 20
1.003865
 30
0.000000
 11
0.772952
 21
0.983399
 31
0.000000
  0
LINE
  8
daiko
 10
4.433146
 20
3.282975
 30
0.000000
 11
4.416282
 21
3.428818
 31
0.000000
  0
LINE
  8
daiko
 10
4.416282
 20
3.428818
 30
0.000000
 11
4.367059
 21
3.568519
 31
0.000000
  0
LINE
  8
daiko
 10
4.367059
 20
3.568519
 30
0.000000
 11
4.289464
 21
3.690761
 31
0.000000
  0
LINE
  8
daiko
 10
4.289464
 20
3.690761
 30
0.000000
 11
4.189783
 21
3.785640
 31
0.000000
  0
LINE
  8
daiko
 10
4.189783
 20
3.785640
 30
0.000000
 11
4.076091
 21
3.845470
 31
0.000000
  0
LINE
  8
daiko
 10
4.076091
 20
3.845470
 30
0.000000
 11
3.957600
 21
3.865404
 31
0.000000
  0
LINE
  8
daiko
 10
3.957600
 20
3.865404
 30
0.000000
 11
3.843909
 21
3.843827
 31
0.000000
  0
LINE
  8
daiko
 10
3.843909
 20
3.843827
 30
0.000000
 11
3.744228
 21
3.782487
 31
0.000000
  0
LINE
  8
daiko
 10
3.744228
 20
3.782487
 30
0.000000
 11
3.666633
 21
3.686353
 31
0.000000
  0
LINE
  8
daiko
 10
3.666633
 20
3.686353
 30
0.000000
 11
3.617409
 21
3.563213
 31
0.000000
  0
LINE
  8
daiko
 10
3.617409
 20
3.563213
 30
0.000000
 11
3.600546
 21
3.423044
 31
0.000000
  0
LINE
  8
daiko
 10
3.600546
 20
3.423044
 30
0.000000
 11
3.617409
 21
3.277201
 31
0.000000
  0
LINE
  8
daiko
 10
3.617409
 20
3.277201
 30
0.000000
 11
3.666633
 21
3.137500
 31
0.000000
  0
LINE
  8
daiko
 10
3.666633
 20
3.137500
 30
0.000000
 11
3.744228
 21
3.015258
 31
0.000000
  0
LINE
  8
daiko
 10
3.744228
 20
3.015258
 30
0.000000
 11
3.843909
 21
2.920379
 31
0.000000
  0
LINE
  8
daiko
 10
3.843909
 20
2.920379
 30
0.000000
 11
3.957600
 21
2.860549
 31
0.000000
  0
LINE
  8
daiko
 10
3.957600
 20
2.860549
 30
0.000000
 11
4.076091
 21
2.840615
 31
0.000000
  0
LINE
  8
daiko
 10
4.076091
 20
2.840615
 30
0.000000
 11
4.189783
 21
2.862192
 31
0.000000
  0
LINE
  8
daiko
 10
4.189783
 20
2.862192
 30
0.000000
 11
4.289464
 21
2.923532
 31
0.000000
  0
LINE
  8
daiko
 10
4.289464
 20
2.923532
 30
0.000000
 11
4.367059
 21
3.019666
 31
0.000000
  0
LINE
  8
daiko
 10
4.367059
 20
3.019666
 30
0.000000
 11
4.416282
 21
3.142806
 31
0.000000
  0
LINE
  8
daiko
 10
4.416282
 20
3.142806
 30
0.000000
 11
4.433146
 21
3.282975
 31
0.000000
  0
LINE
  8
daiko
 10
0.429714
 20
0.732778
 30
0.000000
 11
0.436238
 21
0.729639
 31
0.000000
  0
LINE
  8
daiko
 10
0.436238
 20
0.729639
 30
0.000000
 11
0.445372
 21
0.726845
 31
0.000000
  0
LINE
  8
daiko
 10
0.445372
 20
0.726845
 30
0.000000
 11
0.456766
 21
0.724503
 31
0.000000
  0
LINE
  8
daiko
 10
0.769533
 20
0.782350
 30
0.000000
 11
0.869637
 21
0.803290
 31
0.000000
  0
LINE
  8
daiko
 10
0.869637
 20
0.803290
 30
0.000000
 11
0.957719
 21
0.812878
 31
0.000000
  0
LINE
  8
daiko
 10
0.769533
 20
0.966930
 30
0.000000
 11
0.869637
 21
0.987870
 31
0.000000
  0
LINE
  8
daiko
 10
0.869637
 20
0.987870
 30
0.000000
 11
0.957719
 21
0.997458
 31
0.000000
  0
LINE
  8
daiko
 10
1.409666
 20
7.504843
 30
0.000000
 11
2.095321
 21
7.710640
 31
0.000000
  0
ENDBLK
  0
ENDSEC
  0
SECTION
  2
ENTITIES
  0
INSERT
  8
daiko
  2
TOP
 10
-0.011583
 20
0.055582
 30
0.000000
  0
TEXT
  8
daiko
 10
0.000000
 20
-10.000000
 30
0.000000
 40
4.000000
  1
DSY-4939FW
  7
BIGFONT
  0
TEXT
  8
daiko
 10
0.000000
 20
-14.000000
 30
0.000000
 40
3.000000
  1
LED8.6W        2700Kü`2000K
  7
BIGFONT
  0
TEXT
  8
daiko
 10
0.000000
 20
-18.000000
 30
0.000000
 40
3.000000
  1
ëëÉFÉ½ Ra83    öÆ
  7
BIGFONT
  0
TEXT
  8
daiko
 10
0.000000
 20
-22.000000
 30
0.000000
 40
3.000000
  1
ïð36 ÆÀ612 ìé46mm
  7
BIGFONT
  0
ENDSEC
  0
EOF
