  0
SECTION
  2
HEADER
  9
$EXTMIN
 10
0.000000
 20
-23.000000
 30
0.000000
  9
$EXTMAX
 10
48.041359
 20
19.811369
 30
0.000000
  0
ENDSEC
  0
SECTION
  2
TABLES
  0
TABLE
  2
LTYPE
 70
    10
  0
LTYPE
  2
ByBlock
 70
     0
  3

 72
    65
 73
     0
 40
0.000000
  0
LTYPE
  2
ByLayer
 70
     0
  3

 72
    65
 73
     0
 40
0.000000
  0
LTYPE
  2
CENTER_DASH_DASH
 70
     0
  3
Center_Dash_Dash
 72
    65
 73
     6
 40
22.000000
 49
12.000000
 49
-3.000000
 49
0.500000
 49
-3.000000
 49
0.500000
 49
-3.000000
  0
LTYPE
  2
CONTINUOUS
 70
     0
  3
Solid line
 72
    65
 73
     0
 40
0.000000
  0
LTYPE
  2
DASHED
 70
     0
  3
Dashed
 72
    65
 73
     2
 40
15.000000
 49
12.000000
 49
-3.000000
  0
LTYPE
  2
DASH_CENTER
 70
     0
  3
Dash_Center
 72
    65
 73
     4
 40
36.000000
 49
24.000000
 49
-3.000000
 49
6.000000
 49
-3.000000
  0
LTYPE
  2
DOTTED
 70
     0
  3
Dotted
 72
    65
 73
     2
 40
3.500000
 49
0.500000
 49
-3.000000
  0
LTYPE
  2
DOT_CENTER
 70
     0
  3
Dot_Center
 72
    65
 73
     4
 40
2.000000
 49
1.250000
 49
-0.250000
 49
0.250000
 49
-0.250000
  0
LTYPE
  2
LONG_DASHED
 70
     0
  3
Long_Dashed
 72
    65
 73
     2
 40
2.000000
 49
1.500000
 49
-0.500000
  0
LTYPE
  2
PHANTOM
 70
     0
  3
Phantom
 72
    65
 73
     6
 40
2.500000
 49
1.250000
 49
-0.250000
 49
0.250000
 49
-0.250000
 49
0.250000
 49
-0.250000
  0
ENDTAB
  0
TABLE
  2
STYLE
 70
     3
  0
STYLE
  2
BIGFONT
 70
     0
 40
1.000000
 41
1.000000
 50
0.000000
 71
     0
 42
0.000000
  3
txt
  4
bigfont
  0
STYLE
  2
CONVERTER_1
 70
     0
 40
0.000000
 41
0.900000
 50
0.000000
 71
     0
 42
0.000000
  3
txt.shx
  4

  0
STYLE
  2
STANDARD
 70
     0
 40
0.000000
 41
1.000000
 50
0.000000
 71
     0
 42
0.000000
  3
txt
  4

  0
ENDTAB
  0
TABLE
  2
LAYER
 70
     1
  0
LAYER
  2
daiko
 70
     0
 62
     7
  6
CONTINUOUS
  0
ENDTAB
  0
ENDSEC
  0
SECTION
  2
BLOCKS
  0
BLOCK
  8
daiko
  2
TOP
 70
     0
 10
0.000000
 20
0.000000
 30
0.000000
  3
TOP
  1

  0
ARC
  8
daiko
 10
2.330088
 20
1.958215
 30
0.000000
 40
0.080525
 50
359.533398
 51
97.492486
  0
ARC
  8
daiko
 10
47.487819
 20
18.524673
 30
0.000000
 40
0.072702
 50
357.280192
 51
74.280609
  0
ARC
  8
daiko
 10
0.830772
 20
-0.439556
 30
0.000000
 40
3.726260
 50
67.492041
 51
93.778644
  0
ARC
  8
daiko
 10
2.157077
 20
2.797134
 30
0.000000
 40
0.228810
 50
358.503806
 51
64.042519
  0
ARC
  8
daiko
 10
2.277835
 20
2.203613
 30
0.000000
 40
0.108301
 50
291.623207
 51
4.457583
  0
ARC
  8
daiko
 10
47.291901
 20
19.140648
 30
0.000000
 40
0.228810
 50
358.503806
 51
64.042519
  0
ARC
  8
daiko
 10
45.965596
 20
15.903959
 30
0.000000
 40
3.726260
 50
67.492041
 51
93.408909
  0
ARC
  8
daiko
 10
47.412659
 20
18.689164
 30
0.000000
 40
0.108301
 50
291.623207
 51
4.457583
  0
ARC
  8
daiko
 10
0.189494
 20
0.472735
 30
0.000000
 40
0.109520
 50
266.941131
 51
283.507140
  0
ARC
  8
daiko
 10
0.188161
 20
0.405883
 30
0.000000
 40
0.120128
 50
260.687190
 51
282.946645
  0
ARC
  8
daiko
 10
47.383169
 20
19.167665
 30
0.000000
 40
0.190657
 50
358.504679
 51
64.057748
  0
ARC
  8
daiko
 10
45.831870
 20
19.525486
 30
0.000000
 40
0.121979
 50
93.881292
 51
125.552815
  0
ARC
  8
daiko
 10
46.054292
 20
16.225963
 30
0.000000
 40
3.428990
 50
89.428329
 51
93.857376
  0
ARC
  8
daiko
 10
46.028515
 20
15.863136
 30
0.000000
 40
3.792121
 50
67.632371
 51
89.093577
  0
ARC
  8
daiko
 10
47.371513
 20
19.164209
 30
0.000000
 40
0.228787
 50
358.504591
 51
64.057819
  0
ARC
  8
daiko
 10
46.012596
 20
15.786648
 30
0.000000
 40
3.838494
 50
67.741329
 51
84.192912
  0
ARC
  8
daiko
 10
47.789237
 20
19.288570
 30
0.000000
 40
0.228787
 50
358.504591
 51
64.057819
  0
ARC
  8
daiko
 10
46.432712
 20
15.939178
 30
0.000000
 40
3.841958
 50
67.720038
 51
86.121346
  0
ARC
  8
daiko
 10
1.659831
 20
2.648957
 30
0.000000
 40
0.228787
 50
358.504591
 51
64.057819
  0
ARC
  8
daiko
 10
2.077556
 20
2.773319
 30
0.000000
 40
0.228787
 50
358.504591
 51
64.057819
  0
ARC
  8
daiko
 10
0.303306
 20
-0.700436
 30
0.000000
 40
3.841958
 50
67.720038
 51
86.121346
  0
ARC
  8
daiko
 10
0.734558
 20
-0.527754
 30
0.000000
 40
3.792121
 50
67.632371
 51
89.093577
  0
ARC
  8
daiko
 10
2.029730
 20
1.501921
 30
0.000000
 40
0.268948
 50
171.534796
 51
221.622988
  0
ARC
  8
daiko
 10
2.128996
 20
2.788619
 30
0.000000
 40
0.190657
 50
358.504679
 51
64.057748
  0
ARC
  8
daiko
 10
0.428765
 20
0.634661
 30
0.000000
 40
0.596643
 50
80.001263
 51
102.849708
  0
ARC
  8
daiko
 10
0.403283
 20
1.274114
 30
0.000000
 40
0.025143
 50
80.107482
 51
89.444229
  0
ARC
  8
daiko
 10
0.404675
 20
1.274140
 30
0.000000
 40
0.025143
 50
92.617925
 51
101.954738
  0
ARC
  8
daiko
 10
-0.018695
 20
1.112395
 30
0.000000
 40
0.062715
 50
82.143370
 51
85.777172
  0
ARC
  8
daiko
 10
-0.014635
 20
1.165012
 30
0.000000
 40
0.009944
 50
86.780279
 51
97.142826
  0
ARC
  8
daiko
 10
-0.013692
 20
1.160358
 30
0.000000
 40
0.014683
 50
98.536942
 51
114.119864
  0
ARC
  8
daiko
 10
-0.016961
 20
1.168355
 30
0.000000
 40
0.006055
 50
116.810249
 51
137.731967
  0
ARC
  8
daiko
 10
-0.017286
 20
1.168061
 30
0.000000
 40
0.006029
 50
133.581690
 51
158.996517
  0
ARC
  8
daiko
 10
-0.015095
 20
1.167622
 30
0.000000
 40
0.008239
 50
161.611252
 51
180.389625
  0
ARC
  8
daiko
 10
46.101606
 20
21.004383
 30
0.000000
 40
1.351579
 50
271.817738
 51
283.368666
  0
ARC
  8
daiko
 10
45.748446
 20
19.522987
 30
0.000000
 40
0.100735
 50
92.514099
 51
107.757981
  0
ARC
  8
daiko
 10
0.760335
 20
-0.164927
 30
0.000000
 40
3.428990
 50
89.428329
 51
93.857376
  0
ARC
  8
daiko
 10
0.555798
 20
3.078517
 30
0.000000
 40
0.179690
 50
98.365301
 51
115.941101
  0
ARC
  8
daiko
 10
0.534333
 20
3.127213
 30
0.000000
 40
0.126526
 50
116.846655
 51
145.232239
  0
ARC
  8
daiko
 10
0.573504
 20
3.093161
 30
0.000000
 40
0.178211
 50
143.419974
 51
161.912194
  0
ARC
  8
daiko
 10
0.627530
 20
3.081894
 30
0.000000
 40
0.233144
 50
163.402491
 51
179.625947
  0
ARC
  8
daiko
 10
0.565463
 20
3.100195
 30
0.000000
 40
0.033104
 50
127.106825
 51
180.000000
  0
ARC
  8
daiko
 10
0.562099
 20
3.107247
 30
0.000000
 40
0.025499
 50
87.546545
 51
130.641033
  0
ARC
  8
daiko
 10
0.867368
 20
3.241414
 30
0.000000
 40
0.014768
 50
295.672995
 51
72.275353
  0
ARC
  8
daiko
 10
0.662643
 20
3.729701
 30
0.000000
 40
0.544217
 50
290.231059
 51
292.826300
  0
ARC
  8
daiko
 10
0.804374
 20
2.992783
 30
0.000000
 40
0.271228
 50
75.591741
 51
85.902773
  0
ARC
  8
daiko
 10
0.574964
 20
1.079627
 30
0.000000
 40
0.042615
 50
178.847521
 51
226.390020
  0
ARC
  8
daiko
 10
0.402328
 20
1.099700
 30
0.000000
 40
0.028768
 50
140.183696
 51
237.334389
  0
LINE
  8
daiko
 10
2.319588
 20
2.103544
 30
0.000000
 11
47.452569
 21
18.588484
 31
0.000000
  0
LINE
  8
daiko
 10
45.717722
 20
19.618922
 30
0.000000
 11
0.503352
 21
3.251593
 31
0.000000
  0
LINE
  8
daiko
 10
0.150216
 20
0.353417
 30
0.000000
 11
0.150216
 21
0.294151
 31
0.000000
  0
LINE
  8
daiko
 10
0.532358
 20
3.100195
 30
0.000000
 11
0.532358
 21
1.080485
 31
0.000000
  0
LINE
  8
daiko
 10
0.373589
 20
1.098432
 30
0.000000
 11
0.373589
 21
0.206561
 31
0.000000
  0
LINE
  8
daiko
 10
-0.023335
 20
1.167566
 30
0.000000
 11
-0.023335
 21
0.360923
 31
0.000000
  0
LINE
  8
daiko
 10
0.394390
 20
3.083416
 30
0.000000
 11
0.394390
 21
1.297226
 31
0.000000
  0
LINE
  8
daiko
 10
2.410610
 20
0.118447
 30
0.000000
 11
2.410610
 21
1.957559
 31
0.000000
  0
LINE
  8
daiko
 10
2.319524
 20
0.101605
 30
0.000000
 11
2.346049
 21
0.097143
 31
0.000000
  0
LINE
  8
daiko
 10
2.319588
 20
2.038052
 30
0.000000
 11
47.508449
 21
18.520488
 31
0.000000
  0
LINE
  8
daiko
 10
2.346049
 20
0.097143
 30
0.000000
 11
47.560439
 21
16.965441
 31
0.000000
  0
LINE
  8
daiko
 10
47.560439
 20
16.965441
 30
0.000000
 11
47.560439
 21
18.521223
 31
0.000000
  0
LINE
  8
daiko
 10
47.507516
 20
18.594656
 30
0.000000
 11
47.474449
 21
18.600219
 31
0.000000
  0
LINE
  8
daiko
 10
2.385809
 20
2.212030
 30
0.000000
 11
2.385809
 21
2.791160
 31
0.000000
  0
LINE
  8
daiko
 10
47.520633
 20
18.697581
 30
0.000000
 11
47.520633
 21
19.134674
 31
0.000000
  0
LINE
  8
daiko
 10
0.215074
 20
0.366244
 30
0.000000
 11
0.294641
 21
0.389932
 31
0.000000
  0
LINE
  8
daiko
 10
0.163429
 20
0.288229
 30
0.000000
 11
0.168721
 21
0.287338
 31
0.000000
  0
LINE
  8
daiko
 10
0.215074
 20
0.288809
 30
0.000000
 11
0.294641
 21
0.312497
 31
0.000000
  0
LINE
  8
daiko
 10
47.600222
 20
19.158238
 30
0.000000
 11
47.600222
 21
16.977315
 31
0.000000
  0
LINE
  8
daiko
 10
47.600222
 20
16.977315
 30
0.000000
 11
47.573761
 21
16.981766
 31
0.000000
  0
LINE
  8
daiko
 10
47.573761
 20
16.981766
 30
0.000000
 11
47.573761
 21
19.162690
 31
0.000000
  0
LINE
  8
daiko
 10
47.573761
 20
16.981766
 30
0.000000
 11
47.560439
 21
16.977800
 31
0.000000
  0
LINE
  8
daiko
 10
48.017947
 20
19.282600
 30
0.000000
 11
48.017947
 21
17.101676
 31
0.000000
  0
LINE
  8
daiko
 10
47.600222
 20
16.977315
 30
0.000000
 11
48.017947
 21
17.101676
 31
0.000000
  0
LINE
  8
daiko
 10
46.414113
 20
19.689428
 30
0.000000
 11
46.692596
 21
19.772336
 31
0.000000
  0
LINE
  8
daiko
 10
1.381756
 20
0.634187
 30
0.000000
 11
0.666126
 21
0.421135
 31
0.000000
  0
LINE
  8
daiko
 10
0.658169
 20
0.422474
 30
0.000000
 11
0.666126
 21
0.421135
 31
0.000000
  0
LINE
  8
daiko
 10
1.888541
 20
-0.039033
 30
0.000000
 11
0.373589
 21
0.206561
 31
0.000000
  0
LINE
  8
daiko
 10
0.545571
 20
1.048772
 30
0.000000
 11
0.386802
 21
1.075482
 31
0.000000
  0
LINE
  8
daiko
 10
0.598494
 20
0.401000
 30
0.000000
 11
0.598494
 21
1.536744
 31
0.000000
  0
LINE
  8
daiko
 10
1.381756
 20
0.269231
 30
0.000000
 11
0.598494
 21
0.401000
 31
0.000000
  0
LINE
  8
daiko
 10
1.381756
 20
1.404975
 30
0.000000
 11
1.381756
 21
0.269231
 31
0.000000
  0
LINE
  8
daiko
 10
0.598494
 20
1.536744
 30
0.000000
 11
1.381756
 21
1.404975
 31
0.000000
  0
LINE
  8
daiko
 10
1.888541
 20
2.642986
 30
0.000000
 11
1.888541
 21
-0.039033
 31
0.000000
  0
LINE
  8
daiko
 10
2.306266
 20
2.767348
 30
0.000000
 11
2.306266
 21
0.085328
 31
0.000000
  0
LINE
  8
daiko
 10
2.306266
 20
0.085328
 30
0.000000
 11
1.888541
 21
-0.039033
 31
0.000000
  0
LINE
  8
daiko
 10
2.306266
 20
0.097658
 30
0.000000
 11
2.319588
 21
0.101624
 31
0.000000
  0
LINE
  8
daiko
 10
2.319588
 20
0.101624
 30
0.000000
 11
2.319588
 21
2.783644
 31
0.000000
  0
LINE
  8
daiko
 10
0.598494
 20
0.401000
 30
0.000000
 11
0.658169
 21
0.418766
 31
0.000000
  0
LINE
  8
daiko
 10
0.095724
 20
1.156715
 30
0.000000
 11
0.296075
 21
1.216362
 31
0.000000
  0
LINE
  8
daiko
 10
-0.010122
 20
1.174522
 30
0.000000
 11
0.095724
 21
1.156715
 31
0.000000
  0
LINE
  8
daiko
 10
0.407603
 20
1.298883
 30
0.000000
 11
0.532358
 21
1.277896
 31
0.000000
  0
LINE
  8
daiko
 10
0.380232
 20
1.118121
 30
0.000000
 11
0.532358
 21
1.163410
 31
0.000000
  0
LINE
  8
daiko
 10
0.095724
 20
0.337194
 30
0.000000
 11
0.095724
 21
1.156715
 31
0.000000
  0
LINE
  8
daiko
 10
0.095724
 20
0.337194
 30
0.000000
 11
-0.010122
 21
0.355001
 31
0.000000
  0
LINE
  8
daiko
 10
0.296075
 20
0.396841
 30
0.000000
 11
0.095724
 21
0.337194
 31
0.000000
  0
LINE
  8
daiko
 10
0.399468
 20
1.298737
 30
0.000000
 11
-0.018257
 21
1.174375
 31
0.000000
  0
LINE
  8
daiko
 10
0.373589
 20
0.409225
 30
0.000000
 11
0.338189
 21
0.405427
 31
0.000000
  0
LINE
  8
daiko
 10
0.338189
 20
0.405427
 30
0.000000
 11
0.296075
 21
0.396841
 31
0.000000
  0
LINE
  8
daiko
 10
1.831603
 20
1.361561
 30
0.000000
 11
1.824529
 21
1.422745
 31
0.000000
  0
LINE
  8
daiko
 10
1.824529
 20
1.422745
 30
0.000000
 11
1.803878
 21
1.481353
 31
0.000000
  0
LINE
  8
daiko
 10
1.803878
 20
1.481353
 30
0.000000
 11
1.771326
 21
1.532636
 31
0.000000
  0
LINE
  8
daiko
 10
1.771326
 20
1.532636
 30
0.000000
 11
1.729507
 21
1.572439
 31
0.000000
  0
LINE
  8
daiko
 10
1.729507
 20
1.572439
 30
0.000000
 11
1.681811
 21
1.597540
 31
0.000000
  0
LINE
  8
daiko
 10
1.681811
 20
1.597540
 30
0.000000
 11
1.632102
 21
1.605902
 31
0.000000
  0
LINE
  8
daiko
 10
1.632102
 20
1.605902
 30
0.000000
 11
1.584406
 21
1.596850
 31
0.000000
  0
LINE
  8
daiko
 10
1.584406
 20
1.596850
 30
0.000000
 11
1.542588
 21
1.571117
 31
0.000000
  0
LINE
  8
daiko
 10
1.542588
 20
1.571117
 30
0.000000
 11
1.510035
 21
1.530786
 31
0.000000
  0
LINE
  8
daiko
 10
1.510035
 20
1.530786
 30
0.000000
 11
1.489385
 21
1.479127
 31
0.000000
  0
LINE
  8
daiko
 10
1.489385
 20
1.479127
 30
0.000000
 11
1.482310
 21
1.420323
 31
0.000000
  0
LINE
  8
daiko
 10
1.482310
 20
1.420323
 30
0.000000
 11
1.489385
 21
1.359139
 31
0.000000
  0
LINE
  8
daiko
 10
1.489385
 20
1.359139
 30
0.000000
 11
1.510035
 21
1.300531
 31
0.000000
  0
LINE
  8
daiko
 10
1.510035
 20
1.300531
 30
0.000000
 11
1.542588
 21
1.249248
 31
0.000000
  0
LINE
  8
daiko
 10
1.542588
 20
1.249248
 30
0.000000
 11
1.584406
 21
1.209444
 31
0.000000
  0
LINE
  8
daiko
 10
1.584406
 20
1.209444
 30
0.000000
 11
1.632102
 21
1.184344
 31
0.000000
  0
LINE
  8
daiko
 10
1.632102
 20
1.184344
 30
0.000000
 11
1.681811
 21
1.175982
 31
0.000000
  0
LINE
  8
daiko
 10
1.681811
 20
1.175982
 30
0.000000
 11
1.729507
 21
1.185034
 31
0.000000
  0
LINE
  8
daiko
 10
1.729507
 20
1.185034
 30
0.000000
 11
1.771326
 21
1.210767
 31
0.000000
  0
LINE
  8
daiko
 10
1.771326
 20
1.210767
 30
0.000000
 11
1.803878
 21
1.251098
 31
0.000000
  0
LINE
  8
daiko
 10
1.803878
 20
1.251098
 30
0.000000
 11
1.824529
 21
1.302757
 31
0.000000
  0
LINE
  8
daiko
 10
1.824529
 20
1.302757
 30
0.000000
 11
1.831603
 21
1.361561
 31
0.000000
  0
LINE
  8
daiko
 10
0.294641
 20
0.312497
 30
0.000000
 11
0.336637
 21
0.321282
 31
0.000000
  0
LINE
  8
daiko
 10
0.336637
 20
0.321282
 30
0.000000
 11
0.373589
 21
0.325304
 31
0.000000
  0
LINE
  8
daiko
 10
0.294641
 20
0.389932
 30
0.000000
 11
0.336637
 21
0.398717
 31
0.000000
  0
LINE
  8
daiko
 10
0.336637
 20
0.398717
 30
0.000000
 11
0.373589
 21
0.402739
 31
0.000000
  0
LINE
  8
daiko
 10
0.563190
 20
3.132723
 30
0.000000
 11
0.850837
 21
3.219059
 31
0.000000
  0
ENDBLK
  0
ENDSEC
  0
SECTION
  2
ENTITIES
  0
INSERT
  8
daiko
  2
TOP
 10
0.023335
 20
0.039033
 30
0.000000
  0
TEXT
  8
daiko
 10
0.000000
 20
-10.000000
 30
0.000000
 40
4.000000
  1
DSY-4938FW
  7
BIGFONT
  0
TEXT
  8
daiko
 10
0.000000
 20
-14.000000
 30
0.000000
 40
3.000000
  1
LED21W         2700Kü`2000K
  7
BIGFONT
  0
TEXT
  8
daiko
 10
0.000000
 20
-18.000000
 30
0.000000
 40
3.000000
  1
ëëÉFÉ½ Ra83    öÆ
  7
BIGFONT
  0
TEXT
  8
daiko
 10
0.000000
 20
-22.000000
 30
0.000000
 40
3.000000
  1
ïð36 ÆÀ1492 ìé46mm
  7
BIGFONT
  0
ENDSEC
  0
EOF
