  0
SECTION
  2
HEADER
  9
$EXTMIN
 10
0.000000
 20
-23.000000
 30
0.000000
  9
$EXTMAX
 10
49.069460
 20
21.100100
 30
0.000000
  0
ENDSEC
  0
SECTION
  2
TABLES
  0
TABLE
  2
LTYPE
 70
    10
  0
LTYPE
  2
ByBlock
 70
     0
  3

 72
    65
 73
     0
 40
0.000000
  0
LTYPE
  2
ByLayer
 70
     0
  3

 72
    65
 73
     0
 40
0.000000
  0
LTYPE
  2
CENTER_DASH_DASH
 70
     0
  3
Center_Dash_Dash
 72
    65
 73
     6
 40
22.000000
 49
12.000000
 49
-3.000000
 49
0.500000
 49
-3.000000
 49
0.500000
 49
-3.000000
  0
LTYPE
  2
CONTINUOUS
 70
     0
  3
Solid line
 72
    65
 73
     0
 40
0.000000
  0
LTYPE
  2
DASHED
 70
     0
  3
Dashed
 72
    65
 73
     2
 40
15.000000
 49
12.000000
 49
-3.000000
  0
LTYPE
  2
DASH_CENTER
 70
     0
  3
Dash_Center
 72
    65
 73
     4
 40
36.000000
 49
24.000000
 49
-3.000000
 49
6.000000
 49
-3.000000
  0
LTYPE
  2
DOTTED
 70
     0
  3
Dotted
 72
    65
 73
     2
 40
3.500000
 49
0.500000
 49
-3.000000
  0
LTYPE
  2
DOT_CENTER
 70
     0
  3
Dot_Center
 72
    65
 73
     4
 40
2.000000
 49
1.250000
 49
-0.250000
 49
0.250000
 49
-0.250000
  0
LTYPE
  2
LONG_DASHED
 70
     0
  3
Long_Dashed
 72
    65
 73
     2
 40
2.000000
 49
1.500000
 49
-0.500000
  0
LTYPE
  2
PHANTOM
 70
     0
  3
Phantom
 72
    65
 73
     6
 40
2.500000
 49
1.250000
 49
-0.250000
 49
0.250000
 49
-0.250000
 49
0.250000
 49
-0.250000
  0
ENDTAB
  0
TABLE
  2
STYLE
 70
     3
  0
STYLE
  2
BIGFONT
 70
     0
 40
1.000000
 41
1.000000
 50
0.000000
 71
     0
 42
0.000000
  3
txt
  4
bigfont
  0
STYLE
  2
CONVERTER_1
 70
     0
 40
0.000000
 41
0.900000
 50
0.000000
 71
     0
 42
0.000000
  3
txt.shx
  4

  0
STYLE
  2
STANDARD
 70
     0
 40
0.000000
 41
1.000000
 50
0.000000
 71
     0
 42
0.000000
  3
txt
  4

  0
ENDTAB
  0
TABLE
  2
LAYER
 70
     1
  0
LAYER
  2
daiko
 70
     0
 62
     7
  6
CONTINUOUS
  0
ENDTAB
  0
ENDSEC
  0
SECTION
  2
BLOCKS
  0
BLOCK
  8
daiko
  2
TOP
 70
     0
 10
0.000000
 20
0.000000
 30
0.000000
  3
TOP
  1

  0
ARC
  8
daiko
 10
0.636886
 20
1.650070
 30
0.000000
 40
0.042557
 50
140.183696
 51
237.334389
  0
ARC
  8
daiko
 10
0.892272
 20
1.620377
 30
0.000000
 40
0.063041
 50
178.847521
 51
226.390020
  0
ARC
  8
daiko
 10
1.231645
 20
4.450571
 30
0.000000
 40
0.401236
 50
75.591741
 51
85.902773
  0
ARC
  8
daiko
 10
1.021977
 20
5.540717
 30
0.000000
 40
0.805078
 50
290.231059
 51
292.826300
  0
ARC
  8
daiko
 10
1.324834
 20
4.818378
 30
0.000000
 40
0.021846
 50
295.672995
 51
72.275353
  0
ARC
  8
daiko
 10
0.873239
 20
4.619901
 30
0.000000
 40
0.037721
 50
87.546545
 51
130.641033
  0
ARC
  8
daiko
 10
0.878216
 20
4.609468
 30
0.000000
 40
0.048972
 50
127.106825
 51
180.000000
  0
ARC
  8
daiko
 10
0.970034
 20
4.582395
 30
0.000000
 40
0.344898
 50
163.402491
 51
179.625947
  0
ARC
  8
daiko
 10
0.890112
 20
4.599062
 30
0.000000
 40
0.263634
 50
143.419974
 51
161.912194
  0
ARC
  8
daiko
 10
0.832165
 20
4.649437
 30
0.000000
 40
0.187174
 50
116.846655
 51
145.232239
  0
ARC
  8
daiko
 10
0.863919
 20
4.577399
 30
0.000000
 40
0.265822
 50
98.365301
 51
115.941101
  0
ARC
  8
daiko
 10
1.166497
 20
-0.220733
 30
0.000000
 40
5.072617
 50
89.428329
 51
93.857376
  0
ARC
  8
daiko
 10
45.719187
 20
20.696735
 30
0.000000
 40
0.149021
 50
92.514099
 51
107.757981
  0
ARC
  8
daiko
 10
46.241628
 20
22.888213
 30
0.000000
 40
1.999436
 50
271.817738
 51
283.368666
  0
ARC
  8
daiko
 10
0.019378
 20
1.750550
 30
0.000000
 40
0.012189
 50
161.611252
 51
180.389625
  0
ARC
  8
daiko
 10
0.016137
 20
1.751199
 30
0.000000
 40
0.008919
 50
133.581690
 51
158.996517
  0
ARC
  8
daiko
 10
0.016617
 20
1.751635
 30
0.000000
 40
0.008957
 50
116.810249
 51
137.731967
  0
ARC
  8
daiko
 10
0.021454
 20
1.739804
 30
0.000000
 40
0.021722
 50
98.536942
 51
114.119864
  0
ARC
  8
daiko
 10
0.020058
 20
1.746689
 30
0.000000
 40
0.014710
 50
86.780279
 51
97.142826
  0
ARC
  8
daiko
 10
0.014053
 20
1.668851
 30
0.000000
 40
0.092777
 50
82.143370
 51
85.777172
  0
ARC
  8
daiko
 10
0.640358
 20
1.908125
 30
0.000000
 40
0.037194
 50
92.617925
 51
101.954738
  0
ARC
  8
daiko
 10
0.638299
 20
1.908087
 30
0.000000
 40
0.037195
 50
80.107482
 51
89.444229
  0
ARC
  8
daiko
 10
0.675995
 20
0.962123
 30
0.000000
 40
0.882634
 50
80.001263
 51
102.849708
  0
ARC
  8
daiko
 10
3.191201
 20
4.148544
 30
0.000000
 40
0.282045
 50
358.504679
 51
64.057748
  0
ARC
  8
daiko
 10
3.044355
 20
2.245089
 30
0.000000
 40
0.397863
 50
171.534796
 51
221.622988
  0
ARC
  8
daiko
 10
1.128365
 20
-0.757475
 30
0.000000
 40
5.609809
 50
67.632371
 51
89.093577
  0
ARC
  8
daiko
 10
0.490400
 20
-1.012929
 30
0.000000
 40
5.683534
 50
67.720038
 51
86.121346
  0
ARC
  8
daiko
 10
3.115105
 20
4.125909
 30
0.000000
 40
0.338453
 50
358.504591
 51
64.057819
  0
ARC
  8
daiko
 10
2.497151
 20
3.941937
 30
0.000000
 40
0.338453
 50
358.504591
 51
64.057819
  0
ARC
  8
daiko
 10
46.731444
 20
15.395089
 30
0.000000
 40
5.683534
 50
67.720038
 51
86.121346
  0
ARC
  8
daiko
 10
48.738196
 20
20.349955
 30
0.000000
 40
0.338453
 50
358.504591
 51
64.057819
  0
ARC
  8
daiko
 10
46.109953
 20
15.169447
 30
0.000000
 40
5.678410
 50
67.741329
 51
84.192912
  0
ARC
  8
daiko
 10
48.120242
 20
20.165982
 30
0.000000
 40
0.338453
 50
358.504591
 51
64.057819
  0
ARC
  8
daiko
 10
46.133502
 20
15.282598
 30
0.000000
 40
5.609809
 50
67.632371
 51
89.093577
  0
ARC
  8
daiko
 10
46.171634
 20
15.819340
 30
0.000000
 40
5.072617
 50
89.428329
 51
93.857376
  0
ARC
  8
daiko
 10
45.842598
 20
20.700432
 30
0.000000
 40
0.180448
 50
93.881292
 51
125.552815
  0
ARC
  8
daiko
 10
48.137486
 20
20.171095
 30
0.000000
 40
0.282045
 50
358.504679
 51
64.057748
  0
ARC
  8
daiko
 10
0.320061
 20
0.623684
 30
0.000000
 40
0.177709
 50
260.687190
 51
282.946645
  0
ARC
  8
daiko
 10
0.322033
 20
0.722581
 30
0.000000
 40
0.162017
 50
266.941131
 51
283.507140
  0
ARC
  8
daiko
 10
48.181112
 20
19.463233
 30
0.000000
 40
0.160214
 50
291.623207
 51
4.457583
  0
ARC
  8
daiko
 10
46.040425
 20
15.342988
 30
0.000000
 40
5.512378
 50
67.492041
 51
93.408909
  0
ARC
  8
daiko
 10
48.002471
 20
20.131129
 30
0.000000
 40
0.338486
 50
358.503806
 51
64.042519
  0
ARC
  8
daiko
 10
3.411384
 20
3.283125
 30
0.000000
 40
0.160214
 50
291.623207
 51
4.457583
  0
ARC
  8
daiko
 10
3.232743
 20
4.161140
 30
0.000000
 40
0.338486
 50
358.503806
 51
64.042519
  0
ARC
  8
daiko
 10
1.270697
 20
-0.627000
 30
0.000000
 40
5.512378
 50
67.492041
 51
93.778644
  0
ARC
  8
daiko
 10
48.292298
 20
19.219896
 30
0.000000
 40
0.107550
 50
357.280192
 51
74.280609
  0
ARC
  8
daiko
 10
3.488683
 20
2.920099
 30
0.000000
 40
0.119123
 50
359.533398
 51
97.492486
  0
LINE
  8
daiko
 10
0.874854
 20
4.657587
 30
0.000000
 11
1.300379
 21
4.785308
 31
0.000000
  0
LINE
  8
daiko
 10
0.539706
 20
0.613083
 30
0.000000
 11
0.594371
 21
0.619033
 31
0.000000
  0
LINE
  8
daiko
 10
0.477581
 20
0.600087
 30
0.000000
 11
0.539706
 21
0.613083
 31
0.000000
  0
LINE
  8
daiko
 10
0.539706
 20
0.498531
 30
0.000000
 11
0.594371
 21
0.504481
 31
0.000000
  0
LINE
  8
daiko
 10
0.477581
 20
0.485535
 30
0.000000
 11
0.539706
 21
0.498531
 31
0.000000
  0
LINE
  8
daiko
 10
0.276403
 20
0.451088
 30
0.000000
 11
0.283474
 21
0.449635
 31
0.000000
  0
LINE
  8
daiko
 10
0.270734
 20
0.452822
 30
0.000000
 11
0.276403
 21
0.451088
 31
0.000000
  0
LINE
  8
daiko
 10
2.740793
 20
1.950460
 30
0.000000
 11
2.751259
 21
2.037450
 31
0.000000
  0
LINE
  8
daiko
 10
2.710245
 20
1.874038
 30
0.000000
 11
2.740793
 21
1.950460
 31
0.000000
  0
LINE
  8
daiko
 10
2.662088
 20
1.814376
 30
0.000000
 11
2.710245
 21
1.874038
 31
0.000000
  0
LINE
  8
daiko
 10
2.600225
 20
1.776308
 30
0.000000
 11
2.662088
 21
1.814376
 31
0.000000
  0
LINE
  8
daiko
 10
2.529667
 20
1.762917
 30
0.000000
 11
2.600225
 21
1.776308
 31
0.000000
  0
LINE
  8
daiko
 10
2.456130
 20
1.775288
 30
0.000000
 11
2.529667
 21
1.762917
 31
0.000000
  0
LINE
  8
daiko
 10
2.385572
 20
1.812419
 30
0.000000
 11
2.456130
 21
1.775288
 31
0.000000
  0
LINE
  8
daiko
 10
2.323709
 20
1.871302
 30
0.000000
 11
2.385572
 21
1.812419
 31
0.000000
  0
LINE
  8
daiko
 10
2.275552
 20
1.947167
 30
0.000000
 11
2.323709
 21
1.871302
 31
0.000000
  0
LINE
  8
daiko
 10
2.245004
 20
2.033867
 30
0.000000
 11
2.275552
 21
1.947167
 31
0.000000
  0
LINE
  8
daiko
 10
2.234538
 20
2.124379
 30
0.000000
 11
2.245004
 21
2.033867
 31
0.000000
  0
LINE
  8
daiko
 10
2.245004
 20
2.211369
 30
0.000000
 11
2.234538
 21
2.124379
 31
0.000000
  0
LINE
  8
daiko
 10
2.275552
 20
2.287791
 30
0.000000
 11
2.245004
 21
2.211369
 31
0.000000
  0
LINE
  8
daiko
 10
2.323709
 20
2.347453
 30
0.000000
 11
2.275552
 21
2.287791
 31
0.000000
  0
LINE
  8
daiko
 10
2.385572
 20
2.385521
 30
0.000000
 11
2.323709
 21
2.347453
 31
0.000000
  0
LINE
  8
daiko
 10
2.456130
 20
2.398912
 30
0.000000
 11
2.385572
 21
2.385521
 31
0.000000
  0
LINE
  8
daiko
 10
2.529667
 20
2.386541
 30
0.000000
 11
2.456130
 21
2.398912
 31
0.000000
  0
LINE
  8
daiko
 10
2.600225
 20
2.349410
 30
0.000000
 11
2.529667
 21
2.386541
 31
0.000000
  0
LINE
  8
daiko
 10
2.662088
 20
2.290527
 30
0.000000
 11
2.600225
 21
2.349410
 31
0.000000
  0
LINE
  8
daiko
 10
2.710245
 20
2.214662
 30
0.000000
 11
2.662088
 21
2.290527
 31
0.000000
  0
LINE
  8
daiko
 10
2.740793
 20
2.127962
 30
0.000000
 11
2.710245
 21
2.214662
 31
0.000000
  0
LINE
  8
daiko
 10
2.751259
 20
2.037450
 30
0.000000
 11
2.740793
 21
2.127962
 31
0.000000
  0
LINE
  8
daiko
 10
0.542003
 20
0.623010
 30
0.000000
 11
0.479702
 21
0.610308
 31
0.000000
  0
LINE
  8
daiko
 10
0.594371
 20
0.628629
 30
0.000000
 11
0.542003
 21
0.623010
 31
0.000000
  0
LINE
  8
daiko
 10
0.019664
 20
0.549866
 30
0.000000
 11
0.013994
 21
0.551600
 31
0.000000
  0
LINE
  8
daiko
 10
0.026735
 20
0.548413
 30
0.000000
 11
0.019664
 21
0.549866
 31
0.000000
  0
LINE
  8
daiko
 10
0.632654
 20
1.944513
 30
0.000000
 11
0.014700
 21
1.760540
 31
0.000000
  0
LINE
  8
daiko
 10
0.479702
 20
0.610308
 30
0.000000
 11
0.183317
 21
0.522071
 31
0.000000
  0
LINE
  8
daiko
 10
0.183317
 20
0.522071
 30
0.000000
 11
0.026735
 21
0.548413
 31
0.000000
  0
LINE
  8
daiko
 10
0.183317
 20
0.522071
 30
0.000000
 11
0.183317
 21
1.734415
 31
0.000000
  0
LINE
  8
daiko
 10
0.604198
 20
1.677321
 30
0.000000
 11
0.829244
 21
1.744320
 31
0.000000
  0
LINE
  8
daiko
 10
0.644688
 20
1.944729
 30
0.000000
 11
0.829243
 21
1.913681
 31
0.000000
  0
LINE
  8
daiko
 10
0.026735
 20
1.760757
 30
0.000000
 11
0.183317
 21
1.734415
 31
0.000000
  0
LINE
  8
daiko
 10
0.183317
 20
1.734415
 30
0.000000
 11
0.479702
 21
1.822653
 31
0.000000
  0
LINE
  8
daiko
 10
0.927080
 20
0.616461
 30
0.000000
 11
1.015359
 21
0.642743
 31
0.000000
  0
LINE
  8
daiko
 10
3.473150
 20
0.173584
 30
0.000000
 11
3.473150
 21
4.141184
 31
0.000000
  0
LINE
  8
daiko
 10
3.453443
 20
0.167717
 30
0.000000
 11
3.473150
 21
0.173584
 31
0.000000
  0
LINE
  8
daiko
 10
3.453442
 20
0.149478
 30
0.000000
 11
2.835489
 21
-0.034495
 31
0.000000
  0
LINE
  8
daiko
 10
3.453442
 20
4.117077
 30
0.000000
 11
3.453442
 21
0.149478
 31
0.000000
  0
LINE
  8
daiko
 10
2.835489
 20
3.933105
 30
0.000000
 11
2.835489
 21
-0.034495
 31
0.000000
  0
LINE
  8
daiko
 10
0.927080
 20
2.296604
 30
0.000000
 11
2.085786
 21
2.101673
 31
0.000000
  0
LINE
  8
daiko
 10
2.085786
 20
2.101673
 30
0.000000
 11
2.085786
 21
0.421531
 31
0.000000
  0
LINE
  8
daiko
 10
2.085786
 20
0.421531
 30
0.000000
 11
0.927080
 21
0.616461
 31
0.000000
  0
LINE
  8
daiko
 10
0.927080
 20
0.616461
 30
0.000000
 11
0.927080
 21
2.296604
 31
0.000000
  0
LINE
  8
daiko
 10
0.848789
 20
1.574732
 30
0.000000
 11
0.613917
 21
1.614245
 31
0.000000
  0
LINE
  8
daiko
 10
2.835489
 20
-0.034495
 30
0.000000
 11
0.594371
 21
0.328820
 31
0.000000
  0
LINE
  8
daiko
 10
1.015359
 20
0.648228
 30
0.000000
 11
1.027130
 21
0.646247
 31
0.000000
  0
LINE
  8
daiko
 10
2.085786
 20
0.961422
 30
0.000000
 11
1.027130
 21
0.646247
 31
0.000000
  0
LINE
  8
daiko
 10
46.703929
 20
20.942957
 30
0.000000
 11
47.115899
 21
21.065605
 31
0.000000
  0
LINE
  8
daiko
 10
48.458580
 20
16.930839
 30
0.000000
 11
49.076533
 21
17.114811
 31
0.000000
  0
LINE
  8
daiko
 10
49.076533
 20
20.341122
 30
0.000000
 11
49.076533
 21
17.114811
 31
0.000000
  0
LINE
  8
daiko
 10
48.419434
 20
16.937424
 30
0.000000
 11
48.399727
 21
16.931557
 31
0.000000
  0
LINE
  8
daiko
 10
48.419434
 20
16.937424
 30
0.000000
 11
48.419434
 21
20.163735
 31
0.000000
  0
LINE
  8
daiko
 10
48.458580
 20
16.930839
 30
0.000000
 11
48.419434
 21
16.937424
 31
0.000000
  0
LINE
  8
daiko
 10
48.458580
 20
20.157150
 30
0.000000
 11
48.458580
 21
16.930839
 31
0.000000
  0
LINE
  8
daiko
 10
0.359875
 20
0.450493
 30
0.000000
 11
0.477581
 21
0.485535
 31
0.000000
  0
LINE
  8
daiko
 10
0.283474
 20
0.449635
 30
0.000000
 11
0.291303
 21
0.448318
 31
0.000000
  0
LINE
  8
daiko
 10
0.359875
 20
0.565045
 30
0.000000
 11
0.477581
 21
0.600087
 31
0.000000
  0
LINE
  8
daiko
 10
48.340841
 20
19.475685
 30
0.000000
 11
48.340841
 21
20.122291
 31
0.000000
  0
LINE
  8
daiko
 10
3.571114
 20
3.295577
 30
0.000000
 11
3.571114
 21
4.152302
 31
0.000000
  0
LINE
  8
daiko
 10
48.321436
 20
19.323424
 30
0.000000
 11
48.272520
 21
19.331653
 31
0.000000
  0
LINE
  8
daiko
 10
48.399727
 20
16.913274
 30
0.000000
 11
48.399727
 21
19.214793
 31
0.000000
  0
LINE
  8
daiko
 10
3.512295
 20
0.166955
 30
0.000000
 11
48.399727
 21
16.913274
 31
0.000000
  0
LINE
  8
daiko
 10
3.473150
 20
3.038205
 30
0.000000
 11
48.322816
 21
19.213706
 31
0.000000
  0
LINE
  8
daiko
 10
3.473057
 20
0.173557
 30
0.000000
 11
3.512295
 21
0.166955
 31
0.000000
  0
LINE
  8
daiko
 10
3.607802
 20
0.198471
 30
0.000000
 11
3.607802
 21
2.919129
 31
0.000000
  0
LINE
  8
daiko
 10
0.625143
 20
4.584647
 30
0.000000
 11
0.625143
 21
1.942277
 31
0.000000
  0
LINE
  8
daiko
 10
0.007189
 20
1.750467
 30
0.000000
 11
0.007189
 21
0.557173
 31
0.000000
  0
LINE
  8
daiko
 10
0.594371
 20
1.648195
 30
0.000000
 11
0.594371
 21
0.328820
 31
0.000000
  0
LINE
  8
daiko
 10
0.829243
 20
4.609468
 30
0.000000
 11
0.829243
 21
1.621645
 31
0.000000
  0
LINE
  8
daiko
 10
0.263929
 20
0.546070
 30
0.000000
 11
0.263929
 21
0.458395
 31
0.000000
  0
LINE
  8
daiko
 10
45.673736
 20
20.838655
 30
0.000000
 11
0.786333
 21
4.833436
 31
0.000000
  0
LINE
  8
daiko
 10
3.473150
 20
3.135090
 30
0.000000
 11
48.240151
 21
19.314294
 31
0.000000
  0
ENDBLK
  0
ENDSEC
  0
SECTION
  2
ENTITIES
  0
INSERT
  8
daiko
  2
TOP
 10
-0.007189
 20
0.034495
 30
0.000000
  0
TEXT
  8
daiko
 10
0.000000
 20
-10.000000
 30
0.000000
 40
4.000000
  1
DSY-4936FW
  7
BIGFONT
  0
TEXT
  8
daiko
 10
0.000000
 20
-14.000000
 30
0.000000
 40
3.000000
  1
LED13.5W       2700Kü`2000K
  7
BIGFONT
  0
TEXT
  8
daiko
 10
0.000000
 20
-18.000000
 30
0.000000
 40
3.000000
  1
ëëÉFÉ½ Ra83    öÆ
  7
BIGFONT
  0
TEXT
  8
daiko
 10
0.000000
 20
-22.000000
 30
0.000000
 40
3.000000
  1
ïð36 ÆÀ906 ìé46mm
  7
BIGFONT
  0
ENDSEC
  0
EOF
