  0
SECTION
  2
HEADER
  9
$EXTMIN
 10
0.000000
 20
-40.000000
 30
0.000000
  9
$EXTMAX
 10
47.589904
 20
31.081211
 30
0.000000
  0
ENDSEC
  0
SECTION
  2
TABLES
  0
TABLE
  2
LTYPE
 70
    10
  0
LTYPE
  2
ByBlock
 70
     0
  3

 72
    65
 73
     0
 40
0.000000
  0
LTYPE
  2
ByLayer
 70
     0
  3

 72
    65
 73
     0
 40
0.000000
  0
LTYPE
  2
CENTER_DASH_DASH
 70
     0
  3
Center_Dash_Dash
 72
    65
 73
     6
 40
22.000000
 49
12.000000
 49
-3.000000
 49
0.500000
 49
-3.000000
 49
0.500000
 49
-3.000000
  0
LTYPE
  2
CONTINUOUS
 70
     0
  3
Solid line
 72
    65
 73
     0
 40
0.000000
  0
LTYPE
  2
DASHED
 70
     0
  3
Dashed
 72
    65
 73
     2
 40
15.000000
 49
12.000000
 49
-3.000000
  0
LTYPE
  2
DASH_CENTER
 70
     0
  3
Dash_Center
 72
    65
 73
     4
 40
36.000000
 49
24.000000
 49
-3.000000
 49
6.000000
 49
-3.000000
  0
LTYPE
  2
DOTTED
 70
     0
  3
Dotted
 72
    65
 73
     2
 40
3.500000
 49
0.500000
 49
-3.000000
  0
LTYPE
  2
DOT_CENTER
 70
     0
  3
Dot_Center
 72
    65
 73
     4
 40
2.000000
 49
1.250000
 49
-0.250000
 49
0.250000
 49
-0.250000
  0
LTYPE
  2
LONG_DASHED
 70
     0
  3
Long_Dashed
 72
    65
 73
     2
 40
2.000000
 49
1.500000
 49
-0.500000
  0
LTYPE
  2
PHANTOM
 70
     0
  3
Phantom
 72
    65
 73
     6
 40
2.500000
 49
1.250000
 49
-0.250000
 49
0.250000
 49
-0.250000
 49
0.250000
 49
-0.250000
  0
ENDTAB
  0
TABLE
  2
STYLE
 70
     3
  0
STYLE
  2
BIGFONT
 70
     0
 40
1.000000
 41
1.000000
 50
0.000000
 71
     0
 42
0.000000
  3
txt
  4
bigfont
  0
STYLE
  2
CONVERTER_1
 70
     0
 40
0.000000
 41
0.950000
 50
0.000000
 71
     0
 42
0.000000
  3
simplex.shx
  4

  0
STYLE
  2
STANDARD
 70
     0
 40
0.000000
 41
1.000000
 50
0.000000
 71
     0
 42
0.000000
  3
txt
  4

  0
ENDTAB
  0
TABLE
  2
LAYER
 70
     1
  0
LAYER
  2
daiko
 70
     0
 62
     7
  6
CONTINUOUS
  0
ENDTAB
  0
ENDSEC
  0
SECTION
  2
BLOCKS
  0
BLOCK
  8
daiko
  2
TOP
 70
     0
 10
0.000000
 20
0.000000
 30
0.000000
  3
TOP
  1

  0
ARC
  8
daiko
 10
1777.908556
 20
700.227122
 30
0.000000
 40
1871.079421
 50
201.329630
 51
201.390651
  0
ARC
  8
daiko
 10
485.795657
 20
194.094375
 30
0.000000
 40
483.374084
 50
201.390380
 51
201.597043
  0
ARC
  8
daiko
 10
503.771375
 20
201.389999
 30
0.000000
 40
502.773202
 50
201.616074
 51
201.750377
  0
ARC
  8
daiko
 10
943.662139
 20
376.869172
 30
0.000000
 40
976.373058
 50
201.749134
 51
201.803281
  0
ARC
  8
daiko
 10
32.824369
 20
23.003100
 30
0.000000
 40
1.195936
 50
117.605270
 51
118.746996
  0
ARC
  8
daiko
 10
32.613177
 20
23.408462
 30
0.000000
 40
0.738858
 50
115.006410
 51
117.658421
  0
ARC
  8
daiko
 10
32.490593
 20
23.671445
 30
0.000000
 40
0.448709
 50
108.308580
 51
115.016057
  0
ARC
  8
daiko
 10
32.468931
 20
23.734930
 30
0.000000
 40
0.381633
 50
100.118506
 51
108.215124
  0
ARC
  8
daiko
 10
32.498254
 20
23.536604
 30
0.000000
 40
0.582057
 50
92.339578
 51
99.530172
  0
ARC
  8
daiko
 10
32.541396
 20
22.572981
 30
0.000000
 40
1.546643
 50
90.036572
 51
92.479205
  0
ARC
  8
daiko
 10
32.616500
 20
23.169658
 30
0.000000
 40
0.953008
 50
92.283666
 51
94.579562
  0
ARC
  8
daiko
 10
32.598632
 20
23.635726
 30
0.000000
 40
0.486599
 50
86.579107
 51
92.368113
  0
ARC
  8
daiko
 10
32.602735
 20
23.754702
 30
0.000000
 40
0.367602
 50
77.032058
 51
86.111019
  0
ARC
  8
daiko
 10
32.582466
 20
23.668119
 30
0.000000
 40
0.456525
 50
69.679222
 51
76.991585
  0
ARC
  8
daiko
 10
32.484342
 20
23.406733
 30
0.000000
 40
0.735720
 50
65.122758
 51
69.582316
  0
ARC
  8
daiko
 10
32.059256
 20
22.487836
 30
0.000000
 40
1.748178
 50
63.514309
 51
65.152762
  0
ARC
  8
daiko
 10
31.137513
 20
24.605438
 30
0.000000
 40
1.061311
 50
283.246170
 51
285.297445
  0
ARC
  8
daiko
 10
31.352507
 20
23.824080
 30
0.000000
 40
0.250918
 50
285.016306
 51
292.736864
  0
ARC
  8
daiko
 10
31.384846
 20
23.739610
 30
0.000000
 40
0.160539
 50
293.743979
 51
299.746353
  0
ARC
  8
daiko
 10
31.272860
 20
23.933781
 30
0.000000
 40
0.384688
 50
299.878884
 51
302.189557
  0
ARC
  8
daiko
 10
31.515068
 20
24.309234
 30
0.000000
 40
0.764032
 50
249.808329
 51
253.045855
  0
ARC
  8
daiko
 10
31.350104
 20
23.765998
 30
0.000000
 40
0.196302
 50
252.865682
 51
264.185980
  0
ARC
  8
daiko
 10
31.343889
 20
23.742842
 30
0.000000
 40
0.172678
 50
265.459530
 51
274.276139
  0
ARC
  8
daiko
 10
31.324525
 20
23.999304
 30
0.000000
 40
0.429870
 50
274.301074
 51
277.518477
  0
ARC
  8
daiko
 10
33.126732
 20
22.453066
 30
0.000000
 40
1.243086
 50
55.072450
 51
56.942396
  0
ARC
  8
daiko
 10
33.566200
 20
23.081811
 30
0.000000
 40
0.475980
 50
49.780510
 51
55.111891
  0
ARC
  8
daiko
 10
33.705279
 20
23.245989
 30
0.000000
 40
0.260811
 50
40.355008
 51
49.821016
  0
ARC
  8
daiko
 10
33.772272
 20
23.302942
 30
0.000000
 40
0.172881
 50
26.419992
 51
40.347962
  0
ARC
  8
daiko
 10
33.736677
 20
23.289525
 30
0.000000
 40
0.210763
 50
14.623162
 51
25.380811
  0
ARC
  8
daiko
 10
33.384999
 20
23.196813
 30
0.000000
 40
0.574456
 50
11.037122
 51
14.715340
  0
ARC
  8
daiko
 10
29.889686
 20
10.164947
 30
0.000000
 40
8.793071
 50
68.427881
 51
69.488457
  0
ARC
  8
daiko
 10
31.997690
 20
15.498195
 30
0.000000
 40
3.058334
 50
65.315963
 51
68.417827
  0
ARC
  8
daiko
 10
32.220897
 20
16.005344
 30
0.000000
 40
2.504328
 50
60.621561
 51
65.110484
  0
ARC
  8
daiko
 10
32.048111
 20
15.698267
 30
0.000000
 40
2.856679
 50
56.576017
 51
60.623151
  0
ARC
  8
daiko
 10
31.262227
 20
14.528376
 30
0.000000
 40
4.265994
 50
53.276872
 51
56.421545
  0
ARC
  8
daiko
 10
26.255010
 20
7.809413
 30
0.000000
 40
12.645533
 50
52.253020
 51
53.295625
  0
ARC
  8
daiko
 10
25.746257
 20
13.232478
 30
0.000000
 40
11.425072
 50
41.735464
 51
44.043784
  0
ARC
  8
daiko
 10
31.359658
 20
18.231520
 30
0.000000
 40
3.908385
 50
34.807897
 51
41.829019
  0
ARC
  8
daiko
 10
31.848598
 20
18.630452
 30
0.000000
 40
3.279568
 50
26.163040
 51
33.961399
  0
ARC
  8
daiko
 10
25.277296
 20
15.415774
 30
0.000000
 40
10.595040
 50
23.555354
 51
26.097320
  0
ARC
  8
daiko
 10
-280.055695
 20
177.778659
 30
0.000000
 40
338.744235
 50
332.676683
 51
332.798071
  0
ARC
  8
daiko
 10
-81.295196
 20
75.073107
 30
0.000000
 40
115.016351
 50
332.310252
 51
332.683387
  0
ARC
  8
daiko
 10
-49.399061
 20
58.387410
 30
0.000000
 40
79.019508
 50
331.931896
 51
332.276307
  0
ARC
  8
daiko
 10
-74.869201
 20
71.977925
 30
0.000000
 40
107.888697
 50
331.684271
 51
331.927706
  0
ARC
  8
daiko
 10
-163.677875
 20
119.799580
 30
0.000000
 40
208.754405
 50
331.630287
 51
331.691119
  0
ARC
  8
daiko
 10
-169.746377
 20
123.062419
 30
0.000000
 40
215.644447
 50
331.604654
 51
331.633617
  0
ARC
  8
daiko
 10
21.133162
 20
22.972837
 30
0.000000
 40
0.100548
 50
334.295426
 51
336.656033
  0
ARC
  8
daiko
 10
21.172905
 20
22.955781
 30
0.000000
 40
0.057300
 50
336.568042
 51
342.223084
  0
ARC
  8
daiko
 10
21.191041
 20
22.949846
 30
0.000000
 40
0.038217
 50
342.393508
 51
353.464482
  0
ARC
  8
daiko
 10
21.198870
 20
22.948996
 30
0.000000
 40
0.030342
 50
353.377211
 51
6.955362
  0
ARC
  8
daiko
 10
21.206243
 20
22.949943
 30
0.000000
 40
0.022910
 50
6.835785
 51
23.642904
  0
ARC
  8
daiko
 10
21.211539
 20
22.952254
 30
0.000000
 40
0.017131
 50
23.666509
 51
45.720443
  0
ARC
  8
daiko
 10
21.207431
 20
22.947220
 30
0.000000
 40
0.023610
 50
47.113554
 51
60.978932
  0
ARC
  8
daiko
 10
21.193614
 20
22.922923
 30
0.000000
 40
0.051560
 50
60.650922
 51
65.740339
  0
ARC
  8
daiko
 10
21.086677
 20
23.265461
 30
0.000000
 40
0.282371
 50
287.427553
 51
289.039485
  0
ARC
  8
daiko
 10
21.119355
 20
23.171462
 30
0.000000
 40
0.182854
 50
288.968690
 51
292.622981
  0
ARC
  8
daiko
 10
21.125642
 20
23.153045
 30
0.000000
 40
0.163441
 50
293.072025
 51
299.776495
  0
ARC
  8
daiko
 10
21.060042
 20
23.267722
 30
0.000000
 40
0.295555
 50
299.774217
 51
303.617334
  0
ARC
  8
daiko
 10
21.031885
 20
23.314817
 30
0.000000
 40
0.350372
 50
303.187862
 51
307.279929
  0
ARC
  8
daiko
 10
21.136934
 20
23.177929
 30
0.000000
 40
0.177824
 50
307.063498
 51
314.679935
  0
ARC
  8
daiko
 10
21.167614
 20
23.144453
 30
0.000000
 40
0.132460
 50
315.425469
 51
322.328049
  0
ARC
  8
daiko
 10
20.970487
 20
23.295365
 30
0.000000
 40
0.380721
 50
322.481763
 51
324.916155
  0
ARC
  8
daiko
 10
20.215287
 20
23.583913
 30
0.000000
 40
1.184652
 50
336.541374
 51
339.351796
  0
ARC
  8
daiko
 10
21.003006
 20
23.288475
 30
0.000000
 40
0.343357
 50
339.132745
 51
348.547394
  0
ARC
  8
daiko
 10
21.202612
 20
23.248165
 30
0.000000
 40
0.139722
 50
348.495966
 51
2.184282
  0
ARC
  8
daiko
 10
21.274073
 20
23.251105
 30
0.000000
 40
0.068200
 50
2.004054
 51
27.445776
  0
ARC
  8
daiko
 10
21.264395
 20
23.242927
 30
0.000000
 40
0.080607
 50
29.434549
 51
43.300770
  0
ARC
  8
daiko
 10
21.174034
 20
23.158815
 30
0.000000
 40
0.204057
 50
43.087783
 51
47.918737
  0
ARC
  8
daiko
 10
20.964845
 20
23.348433
 30
0.000000
 40
0.115187
 50
70.015961
 51
71.468005
  0
ARC
  8
daiko
 10
20.985426
 20
23.409872
 30
0.000000
 40
0.050392
 50
71.452467
 51
75.311593
  0
ARC
  8
daiko
 10
20.988565
 20
23.421138
 30
0.000000
 40
0.038699
 50
75.577117
 51
82.853053
  0
ARC
  8
daiko
 10
20.987942
 20
23.416023
 30
0.000000
 40
0.043852
 50
82.876917
 51
89.425420
  0
ARC
  8
daiko
 10
20.987946
 20
23.402813
 30
0.000000
 40
0.057061
 50
89.562450
 51
96.968272
  0
ARC
  8
daiko
 10
20.990157
 20
23.383889
 30
0.000000
 40
0.076113
 50
96.892321
 51
102.535349
  0
ARC
  8
daiko
 10
20.992271
 20
23.373881
 30
0.000000
 40
0.086342
 50
102.463345
 51
108.076034
  0
ARC
  8
daiko
 10
20.995915
 20
23.362895
 30
0.000000
 40
0.097917
 50
108.107981
 51
113.039914
  0
ARC
  8
daiko
 10
21.003246
 20
23.345535
 30
0.000000
 40
0.116761
 50
113.016810
 51
117.806025
  0
ARC
  8
daiko
 10
21.008107
 20
23.336193
 30
0.000000
 40
0.127291
 50
117.779608
 51
122.185745
  0
ARC
  8
daiko
 10
21.030221
 20
23.301931
 30
0.000000
 40
0.168068
 50
122.344527
 51
125.648795
  0
ARC
  8
daiko
 10
21.217907
 20
23.040378
 30
0.000000
 40
0.489994
 50
125.657801
 51
126.779106
  0
ARC
  8
daiko
 10
19.743063
 20
20.611549
 30
0.000000
 40
0.232553
 50
334.683746
 51
337.318303
  0
ARC
  8
daiko
 10
19.861262
 20
20.562038
 30
0.000000
 40
0.104404
 50
337.374731
 51
344.142662
  0
ARC
  8
daiko
 10
19.834052
 20
20.567160
 30
0.000000
 40
0.132002
 50
345.231577
 51
354.656617
  0
ARC
  8
daiko
 10
19.418679
 20
20.608131
 30
0.000000
 40
0.549389
 50
354.436415
 51
357.018898
  0
ARC
  8
daiko
 10
24.302505
 20
22.201264
 30
0.000000
 40
10.973485
 50
316.706683
 51
318.906581
  0
ARC
  8
daiko
 10
30.317779
 20
16.537828
 30
0.000000
 40
2.711645
 50
309.143331
 51
316.649054
  0
ARC
  8
daiko
 10
30.140416
 20
16.793608
 30
0.000000
 40
3.022077
 50
305.647185
 51
308.690072
  0
ARC
  8
daiko
 10
29.323794
 20
17.922998
 30
0.000000
 40
4.415768
 50
303.918880
 51
305.717304
  0
ARC
  8
daiko
 10
28.723442
 20
18.814954
 30
0.000000
 40
5.490946
 50
303.004254
 51
303.923691
  0
ARC
  8
daiko
 10
24.129219
 20
22.118386
 30
0.000000
 40
9.582964
 50
238.372484
 51
238.845826
  0
ARC
  8
daiko
 10
21.435587
 20
17.741562
 30
0.000000
 40
4.443680
 50
237.176589
 51
238.351560
  0
ARC
  8
daiko
 10
21.873167
 20
18.391204
 30
0.000000
 40
5.226818
 50
234.317093
 51
237.005815
  0
ARC
  8
daiko
 10
22.810061
 20
19.711445
 30
0.000000
 40
6.845689
 50
232.086429
 51
234.393217
  0
ARC
  8
daiko
 10
22.274142
 20
19.036753
 30
0.000000
 40
5.984097
 50
228.139485
 51
232.165213
  0
ARC
  8
daiko
 10
21.481031
 20
18.152501
 30
0.000000
 40
4.796273
 50
223.072024
 51
228.146748
  0
ARC
  8
daiko
 10
21.162301
 20
17.845317
 30
0.000000
 40
4.353666
 50
216.570814
 51
222.983450
  0
ARC
  8
daiko
 10
20.902867
 20
17.657317
 30
0.000000
 40
4.033297
 50
209.842494
 51
216.621783
  0
ARC
  8
daiko
 10
20.243362
 20
17.282786
 30
0.000000
 40
3.274873
 50
202.548152
 51
209.900475
  0
ARC
  8
daiko
 10
19.828135
 20
17.106845
 30
0.000000
 40
2.823922
 50
194.028342
 51
202.481842
  0
ARC
  8
daiko
 10
20.001656
 20
17.143009
 30
0.000000
 40
3.001043
 50
186.121472
 51
193.895138
  0
ARC
  8
daiko
 10
20.187550
 20
17.166847
 30
0.000000
 40
3.188421
 50
178.870314
 51
186.191188
  0
ARC
  8
daiko
 10
19.494837
 20
17.190570
 30
0.000000
 40
2.495396
 50
171.578772
 51
179.101310
  0
ARC
  8
daiko
 10
18.852029
 20
17.283945
 30
0.000000
 40
1.845844
 50
161.395363
 51
171.523833
  0
ARC
  8
daiko
 10
19.366038
 20
17.085641
 30
0.000000
 40
2.396378
 50
154.321799
 51
160.822622
  0
ARC
  8
daiko
 10
22.197327
 20
15.731653
 30
0.000000
 40
5.534764
 50
151.988375
 51
154.389844
  0
ARC
  8
daiko
 10
46.141173
 20
20.842860
 30
0.000000
 40
13.478388
 50
187.507511
 51
188.227031
  0
ARC
  8
daiko
 10
36.270519
 20
19.416911
 30
0.000000
 40
3.505267
 50
188.246242
 51
190.638338
  0
ARC
  8
daiko
 10
36.240892
 20
19.420665
 30
0.000000
 40
3.476854
 50
190.789263
 51
192.539263
  0
ARC
  8
daiko
 10
36.263489
 20
19.421999
 30
0.000000
 40
3.499204
 50
192.480263
 51
194.049752
  0
ARC
  8
daiko
 10
33.746196
 20
18.788957
 30
0.000000
 40
0.903540
 50
193.859730
 51
196.041609
  0
ARC
  8
daiko
 10
33.396901
 20
18.690403
 30
0.000000
 40
0.540615
 50
196.233029
 51
200.159905
  0
ARC
  8
daiko
 10
33.478599
 20
18.719907
 30
0.000000
 40
0.627476
 50
200.117940
 51
203.042458
  0
ARC
  8
daiko
 10
33.224679
 20
18.610013
 30
0.000000
 40
0.350805
 50
202.758453
 51
207.570505
  0
ARC
  8
daiko
 10
33.010592
 20
18.498742
 30
0.000000
 40
0.109531
 50
207.807363
 51
212.101394
  0
ARC
  8
daiko
 10
32.977329
 20
18.478138
 30
0.000000
 40
0.070404
 50
212.283241
 51
218.868011
  0
ARC
  8
daiko
 10
32.972237
 20
18.473966
 30
0.000000
 40
0.063821
 50
218.819939
 51
222.308441
  0
ARC
  8
daiko
 10
32.959420
 20
18.462232
 30
0.000000
 40
0.046444
 50
222.246567
 51
227.020543
  0
ARC
  8
daiko
 10
32.944772
 20
18.446478
 30
0.000000
 40
0.024933
 50
226.966482
 51
231.133929
  0
ARC
  8
daiko
 10
32.941532
 20
18.442555
 30
0.000000
 40
0.019845
 50
231.310164
 51
237.013198
  0
ARC
  8
daiko
 10
32.942163
 20
18.443461
 30
0.000000
 40
0.020948
 50
236.913805
 51
242.686194
  0
ARC
  8
daiko
 10
32.938977
 20
18.437144
 30
0.000000
 40
0.013874
 50
242.404519
 51
251.120636
  0
ARC
  8
daiko
 10
32.937942
 20
18.434589
 30
0.000000
 40
0.011123
 50
251.906759
 51
259.627085
  0
ARC
  8
daiko
 10
32.942958
 20
18.462465
 30
0.000000
 40
0.039446
 50
259.750797
 51
262.190013
  0
ARC
  8
daiko
 10
33.048884
 20
18.598267
 30
0.000000
 40
0.212597
 50
246.209804
 51
248.435353
  0
ARC
  8
daiko
 10
32.991884
 20
18.468833
 30
0.000000
 40
0.071168
 50
239.570391
 51
246.164673
  0
ARC
  8
daiko
 10
32.988996
 20
18.462928
 30
0.000000
 40
0.064615
 50
232.416316
 51
239.126290
  0
ARC
  8
daiko
 10
32.993232
 20
18.468638
 30
0.000000
 40
0.071724
 50
226.563484
 51
232.516863
  0
ARC
  8
daiko
 10
32.994413
 20
18.469779
 30
0.000000
 40
0.073364
 50
223.343544
 51
226.506459
  0
ARC
  8
daiko
 10
32.990002
 20
18.465722
 30
0.000000
 40
0.067371
 50
220.420944
 51
223.409302
  0
ARC
  8
daiko
 10
32.989681
 20
18.465271
 30
0.000000
 40
0.066835
 50
219.431426
 51
220.305063
  0
ARC
  8
daiko
 10
33.018067
 20
18.488610
 30
0.000000
 40
0.103584
 50
219.027061
 51
219.429763
  0
ARC
  8
daiko
 10
34.027016
 20
17.818599
 30
0.000000
 40
0.025562
 50
273.525568
 51
275.189996
  0
ARC
  8
daiko
 10
34.027220
 20
17.814695
 30
0.000000
 40
0.021653
 50
270.246361
 51
273.621845
  0
ARC
  8
daiko
 10
34.027473
 20
17.814542
 30
0.000000
 40
0.021500
 50
257.456082
 51
269.574633
  0
ARC
  8
daiko
 10
34.029540
 20
17.824287
 30
0.000000
 40
0.031462
 50
248.146325
 51
257.636799
  0
ARC
  8
daiko
 10
34.037417
 20
17.843008
 30
0.000000
 40
0.051771
 50
239.048835
 51
247.767260
  0
ARC
  8
daiko
 10
34.069215
 20
17.896709
 30
0.000000
 40
0.114180
 50
234.899394
 51
239.223974
  0
ARC
  8
daiko
 10
34.225648
 20
18.120056
 30
0.000000
 40
0.386861
 50
233.640306
 51
234.964888
  0
ARC
  8
daiko
 10
31.637763
 20
23.141437
 30
0.000000
 40
0.359418
 50
296.455770
 51
297.877785
  0
ARC
  8
daiko
 10
31.729960
 20
22.956232
 30
0.000000
 40
0.152533
 50
292.659981
 51
296.443610
  0
ARC
  8
daiko
 10
31.737982
 20
22.938911
 30
0.000000
 40
0.133460
 50
285.911864
 51
292.347075
  0
ARC
  8
daiko
 10
31.729251
 20
22.969209
 30
0.000000
 40
0.164992
 50
280.542260
 51
285.942893
  0
ARC
  8
daiko
 10
31.723716
 20
22.998867
 30
0.000000
 40
0.195161
 50
274.724077
 51
280.546689
  0
ARC
  8
daiko
 10
31.721901
 20
23.019300
 30
0.000000
 40
0.215674
 50
269.446291
 51
274.757689
  0
ARC
  8
daiko
 10
31.721255
 20
22.998826
 30
0.000000
 40
0.195195
 50
263.812828
 51
269.577807
  0
ARC
  8
daiko
 10
31.715884
 20
22.950625
 30
0.000000
 40
0.146696
 50
256.488813
 51
263.869306
  0
ARC
  8
daiko
 10
31.719336
 20
22.959516
 30
0.000000
 40
0.156153
 50
250.190708
 51
256.019528
  0
ARC
  8
daiko
 10
31.826259
 20
23.255311
 30
0.000000
 40
0.470680
 50
248.186333
 51
250.147675
  0
ARC
  8
daiko
 10
31.475873
 20
23.482990
 30
0.000000
 40
0.530611
 50
247.120552
 51
248.123390
  0
ARC
  8
daiko
 10
31.405022
 20
23.306005
 30
0.000000
 40
0.339971
 50
248.090273
 51
250.350762
  0
ARC
  8
daiko
 10
31.380978
 20
23.241052
 30
0.000000
 40
0.270717
 50
250.520603
 51
256.039606
  0
ARC
  8
daiko
 10
31.388983
 20
23.273177
 30
0.000000
 40
0.303824
 50
256.036139
 51
261.173496
  0
ARC
  8
daiko
 10
31.398570
 20
23.339189
 30
0.000000
 40
0.370526
 50
261.274912
 51
267.706466
  0
ARC
  8
daiko
 10
31.401711
 20
23.403038
 30
0.000000
 40
0.434450
 50
267.629508
 51
273.218217
  0
ARC
  8
daiko
 10
31.405263
 20
23.357403
 30
0.000000
 40
0.388688
 50
273.073114
 51
279.223023
  0
ARC
  8
daiko
 10
31.421508
 20
23.259228
 30
0.000000
 40
0.289179
 50
279.163495
 51
287.020521
  0
ARC
  8
daiko
 10
31.414687
 20
23.272577
 30
0.000000
 40
0.303951
 50
287.513476
 51
293.662937
  0
ARC
  8
daiko
 10
31.169138
 20
23.830865
 30
0.000000
 40
0.913853
 50
293.715138
 51
295.790502
  0
ARC
  8
daiko
 10
19.067221
 20
13.327372
 30
0.000000
 40
7.778590
 50
97.858642
 51
99.768936
  0
ARC
  8
daiko
 10
18.358347
 20
18.487502
 30
0.000000
 40
2.570001
 50
92.038608
 51
97.932789
  0
ARC
  8
daiko
 10
18.316384
 20
19.183723
 30
0.000000
 40
1.872805
 50
84.108750
 51
91.513313
  0
ARC
  8
daiko
 10
18.229199
 20
18.378503
 30
0.000000
 40
2.682725
 50
78.886755
 51
84.021686
  0
ARC
  8
daiko
 10
18.101898
 20
17.633416
 30
0.000000
 40
3.438428
 50
74.208822
 51
79.198373
  0
ARC
  8
daiko
 10
18.292004
 20
18.297766
 30
0.000000
 40
2.747418
 50
67.913531
 51
74.253473
  0
ARC
  8
daiko
 10
18.116728
 20
17.936303
 30
0.000000
 40
3.148371
 50
61.182423
 51
67.431221
  0
ARC
  8
daiko
 10
14.451766
 20
11.275507
 30
0.000000
 40
10.750881
 50
59.221065
 51
61.180103
  0
ARC
  8
daiko
 10
20.735164
 20
16.249375
 30
0.000000
 40
4.006325
 50
152.395643
 51
154.805168
  0
ARC
  8
daiko
 10
18.992169
 20
17.065939
 30
0.000000
 40
2.081542
 50
154.719628
 51
160.740363
  0
ARC
  8
daiko
 10
18.625338
 20
17.213306
 30
0.000000
 40
1.686729
 50
161.355869
 51
171.859985
  0
ARC
  8
daiko
 10
19.463043
 20
17.094955
 30
0.000000
 40
2.532752
 50
171.892894
 51
178.964341
  0
ARC
  8
daiko
 10
20.328973
 20
17.060648
 30
0.000000
 40
3.399212
 50
178.649978
 51
185.602113
  0
ARC
  8
daiko
 10
20.000260
 20
17.024899
 30
0.000000
 40
3.068581
 50
185.536963
 51
193.232012
  0
ARC
  8
daiko
 10
19.811865
 20
16.989267
 30
0.000000
 40
2.877044
 50
193.400030
 51
201.945137
  0
ARC
  8
daiko
 10
20.169337
 20
17.135488
 30
0.000000
 40
3.263260
 50
201.980816
 51
209.457113
  0
ARC
  8
daiko
 10
20.709779
 20
17.439506
 30
0.000000
 40
3.883344
 50
209.441494
 51
216.244648
  0
ARC
  8
daiko
 10
21.200852
 20
17.797566
 30
0.000000
 40
4.491092
 50
216.224694
 51
222.135076
  0
ARC
  8
daiko
 10
21.442610
 20
18.010584
 30
0.000000
 40
4.813283
 50
222.084799
 51
227.678169
  0
ARC
  8
daiko
 10
21.602373
 20
18.187864
 30
0.000000
 40
5.051927
 50
227.692199
 51
233.059219
  0
ARC
  8
daiko
 10
22.884368
 20
19.933394
 30
0.000000
 40
7.217561
 50
233.252919
 51
237.019815
  0
ARC
  8
daiko
 10
29.698721
 20
30.424355
 30
0.000000
 40
19.727383
 50
237.003736
 51
238.305034
  0
ARC
  8
daiko
 10
32.674499
 20
38.088080
 30
0.000000
 40
27.851712
 50
241.381027
 51
242.094556
  0
ARC
  8
daiko
 10
23.791472
 20
21.321788
 30
0.000000
 40
8.877605
 50
242.115620
 51
244.265531
  0
ARC
  8
daiko
 10
23.580601
 20
20.942272
 30
0.000000
 40
8.444209
 50
244.436309
 51
247.467383
  0
ARC
  8
daiko
 10
24.365768
 20
22.819701
 30
0.000000
 40
10.479203
 50
247.435779
 51
249.964351
  0
ARC
  8
daiko
 10
24.523561
 20
23.234398
 30
0.000000
 40
10.922865
 50
249.932010
 51
252.899112
  0
ARC
  8
daiko
 10
24.568019
 20
23.386601
 30
0.000000
 40
11.081412
 50
252.910815
 51
255.868665
  0
ARC
  8
daiko
 10
24.898283
 20
24.727950
 30
0.000000
 40
12.462804
 50
255.901834
 51
259.137679
  0
ARC
  8
daiko
 10
25.151080
 20
26.015728
 30
0.000000
 40
13.775150
 50
259.114443
 51
262.052680
  0
ARC
  8
daiko
 10
25.140986
 20
25.919177
 30
0.000000
 40
13.678130
 50
262.038637
 51
264.988302
  0
ARC
  8
daiko
 10
25.151691
 20
26.073463
 30
0.000000
 40
13.832762
 50
264.999960
 51
267.886619
  0
ARC
  8
daiko
 10
25.173069
 20
26.591732
 30
0.000000
 40
14.351467
 50
267.877629
 51
270.707242
  0
ARC
  8
daiko
 10
25.174699
 20
26.555384
 30
0.000000
 40
14.315102
 50
270.702516
 51
273.539164
  0
ARC
  8
daiko
 10
25.205586
 20
26.079401
 30
0.000000
 40
13.838120
 50
273.533179
 51
276.392168
  0
ARC
  8
daiko
 10
25.250831
 20
25.667284
 30
0.000000
 40
13.423528
 50
276.396091
 51
279.343211
  0
ARC
  8
daiko
 10
25.318392
 20
25.268004
 30
0.000000
 40
13.018576
 50
279.335102
 51
282.317453
  0
ARC
  8
daiko
 10
25.496293
 20
24.459059
 30
0.000000
 40
12.190301
 50
282.311646
 51
285.493304
  0
ARC
  8
daiko
 10
25.771125
 20
23.469222
 30
0.000000
 40
11.163019
 50
285.491075
 51
288.746570
  0
ARC
  8
daiko
 10
26.004586
 20
22.777679
 30
0.000000
 40
10.433132
 50
288.753021
 51
292.239702
  0
ARC
  8
daiko
 10
26.517206
 20
21.546926
 30
0.000000
 40
9.099923
 50
292.185127
 51
296.006836
  0
ARC
  8
daiko
 10
27.109947
 20
20.327224
 30
0.000000
 40
7.743823
 50
296.022312
 51
300.604906
  0
ARC
  8
daiko
 10
26.904402
 20
20.645105
 30
0.000000
 40
8.122082
 50
300.711249
 51
304.724527
  0
ARC
  8
daiko
 10
26.382737
 20
21.407241
 30
0.000000
 40
9.045640
 50
304.690447
 51
308.275309
  0
ARC
  8
daiko
 10
28.926756
 20
18.229649
 30
0.000000
 40
4.975307
 50
307.943243
 51
312.107806
  0
ARC
  8
daiko
 10
30.736018
 20
16.233794
 30
0.000000
 40
2.281457
 50
312.007667
 51
320.588778
  0
ARC
  8
daiko
 10
30.735301
 20
16.199905
 30
0.000000
 40
2.260653
 50
321.263921
 51
324.847757
  0
ARC
  8
daiko
 10
30.505180
 20
16.369567
 30
0.000000
 40
2.546495
 50
324.707641
 51
326.459926
  0
ARC
  8
daiko
 10
20.065629
 20
30.474786
 30
0.000000
 40
20.005842
 50
304.313930
 51
305.610140
  0
ARC
  8
daiko
 10
27.396333
 20
19.737523
 30
0.000000
 40
7.004765
 50
300.525066
 51
304.297621
  0
ARC
  8
daiko
 10
27.730852
 20
19.242967
 30
0.000000
 40
6.408950
 50
295.192656
 51
300.194601
  0
ARC
  8
daiko
 10
26.610294
 20
21.616020
 30
0.000000
 40
9.033263
 50
291.590776
 51
295.217084
  0
ARC
  8
daiko
 10
25.813987
 20
23.580782
 30
0.000000
 40
11.153203
 50
288.360581
 51
291.680424
  0
ARC
  8
daiko
 10
25.705486
 20
23.903068
 30
0.000000
 40
11.493261
 50
285.152635
 51
288.367856
  0
ARC
  8
daiko
 10
25.628822
 20
24.195193
 30
0.000000
 40
11.795269
 50
281.895689
 51
285.141167
  0
ARC
  8
daiko
 10
25.448523
 20
25.057405
 30
0.000000
 40
12.676129
 50
278.877342
 51
281.889806
  0
ARC
  8
daiko
 10
25.301938
 20
25.975818
 30
0.000000
 40
13.606162
 50
275.964286
 51
278.890398
  0
ARC
  8
daiko
 10
25.261998
 20
26.347482
 30
0.000000
 40
13.979964
 50
273.121094
 51
275.968813
  0
ARC
  8
daiko
 10
25.261231
 20
26.339699
 30
0.000000
 40
13.972235
 50
270.280615
 51
273.125974
  0
ARC
  8
daiko
 10
25.261855
 20
26.401437
 30
0.000000
 40
14.033969
 50
267.443611
 51
270.276831
  0
ARC
  8
daiko
 10
25.257365
 20
26.355691
 30
0.000000
 40
13.988069
 50
264.589982
 51
267.453629
  0
ARC
  8
daiko
 10
25.239745
 20
26.161969
 30
0.000000
 40
13.793548
 50
261.652477
 51
264.586976
  0
ARC
  8
daiko
 10
25.197884
 20
25.892509
 30
0.000000
 40
13.520866
 50
258.742327
 51
261.662216
  0
ARC
  8
daiko
 10
24.975758
 20
24.792272
 30
0.000000
 40
12.398435
 50
255.583438
 51
258.756476
  0
ARC
  8
daiko
 10
24.642683
 20
23.487100
 30
0.000000
 40
11.051435
 50
252.615234
 51
255.571195
  0
ARC
  8
daiko
 10
24.506941
 20
23.044840
 30
0.000000
 40
10.588821
 50
249.512280
 51
252.601164
  0
ARC
  8
daiko
 10
24.676944
 20
23.493368
 30
0.000000
 40
11.068480
 50
247.104667
 51
249.500572
  0
ARC
  8
daiko
 10
24.476165
 20
23.030870
 30
0.000000
 40
10.564307
 50
244.690055
 51
247.131932
  0
ARC
  8
daiko
 10
23.244976
 20
20.438727
 30
0.000000
 40
7.694639
 50
242.670648
 51
244.725989
  0
ARC
  8
daiko
 10
22.387944
 20
18.775569
 30
0.000000
 40
5.823651
 50
239.961925
 51
242.649083
  0
ARC
  8
daiko
 10
23.260132
 20
20.252111
 30
0.000000
 40
7.538496
 50
238.390507
 51
239.840875
  0
ARC
  8
daiko
 10
28.199878
 20
28.284606
 30
0.000000
 40
16.968346
 50
237.854625
 51
238.401182
  0
ARC
  8
daiko
 10
34.112479
 20
17.873487
 30
0.000000
 40
0.115626
 50
224.017261
 51
225.008858
  0
ARC
  8
daiko
 10
34.047772
 20
17.808778
 30
0.000000
 40
0.024115
 50
225.037235
 51
228.691804
  0
ARC
  8
daiko
 10
34.047420
 20
17.808489
 30
0.000000
 40
0.023666
 50
228.870984
 51
232.416832
  0
ARC
  8
daiko
 10
34.046510
 20
17.807250
 30
0.000000
 40
0.022129
 50
232.327842
 51
236.129611
  0
ARC
  8
daiko
 10
34.041517
 20
17.799735
 30
0.000000
 40
0.013107
 50
235.942111
 51
241.567652
  0
ARC
  8
daiko
 10
34.039306
 20
17.795674
 30
0.000000
 40
0.008482
 50
241.642347
 51
249.985334
  0
ARC
  8
daiko
 10
34.039131
 20
17.795298
 30
0.000000
 40
0.008070
 50
250.240046
 51
264.259158
  0
ARC
  8
daiko
 10
34.039096
 20
17.794655
 30
0.000000
 40
0.007426
 50
264.029833
 51
279.180922
  0
ARC
  8
daiko
 10
34.038920
 20
17.794880
 30
0.000000
 40
0.007678
 50
280.209125
 51
304.327313
  0
ARC
  8
daiko
 10
34.036282
 20
17.798806
 30
0.000000
 40
0.012408
 50
304.163617
 51
319.075706
  0
ARC
  8
daiko
 10
34.032242
 20
17.802328
 30
0.000000
 40
0.017767
 50
319.028029
 51
337.650507
  0
ARC
  8
daiko
 10
34.009715
 20
17.811422
 30
0.000000
 40
0.042060
 50
337.862069
 51
346.231980
  0
ARC
  8
daiko
 10
33.871275
 20
17.846863
 30
0.000000
 40
0.184963
 50
345.775016
 51
351.063248
  0
ARC
  8
daiko
 10
33.730177
 20
17.870375
 30
0.000000
 40
0.328004
 50
350.834912
 51
354.119111
  0
ARC
  8
daiko
 10
33.733878
 20
17.870521
 30
0.000000
 40
0.324338
 50
354.026437
 51
357.632018
  0
ARC
  8
daiko
 10
33.699738
 20
17.871423
 30
0.000000
 40
0.358486
 50
357.713426
 51
1.012297
  0
ARC
  8
daiko
 10
33.389632
 20
17.865116
 30
0.000000
 40
0.668655
 50
1.083196
 51
3.081693
  0
ARC
  8
daiko
 10
32.690782
 20
17.828745
 30
0.000000
 40
1.368450
 50
3.029273
 51
3.787463
  0
ARC
  8
daiko
 10
20.075455
 20
23.621623
 30
0.000000
 40
0.108130
 50
174.642582
 51
180.089778
  0
ARC
  8
daiko
 10
20.056423
 20
23.623419
 30
0.000000
 40
0.089014
 50
168.034979
 51
174.650131
  0
ARC
  8
daiko
 10
20.042866
 20
23.626289
 30
0.000000
 40
0.075156
 50
160.189239
 51
168.032608
  0
ARC
  8
daiko
 10
32.840223
 20
23.276675
 30
0.000000
 40
0.124888
 50
109.602434
 51
119.710713
  0
ARC
  8
daiko
 10
32.851776
 20
23.244876
 30
0.000000
 40
0.158720
 50
101.727550
 51
109.680146
  0
ARC
  8
daiko
 10
32.855950
 20
23.226330
 30
0.000000
 40
0.177728
 50
98.742796
 51
101.830030
  0
ARC
  8
daiko
 10
32.857211
 20
23.218200
 30
0.000000
 40
0.185956
 50
95.795318
 51
98.745944
  0
ARC
  8
daiko
 10
32.857799
 20
23.212501
 30
0.000000
 40
0.191684
 50
92.877122
 51
95.798004
  0
ARC
  8
daiko
 10
32.857957
 20
23.209538
 30
0.000000
 40
0.194652
 50
90.003652
 51
92.879951
  0
ARC
  8
daiko
 10
32.857966
 20
23.209533
 30
0.000000
 40
0.194657
 50
87.130114
 51
90.006388
  0
ARC
  8
daiko
 10
32.858124
 20
23.212486
 30
0.000000
 40
0.191700
 50
84.212240
 51
87.132943
  0
ARC
  8
daiko
 10
32.858709
 20
23.218175
 30
0.000000
 40
0.185980
 50
81.264531
 51
84.214926
  0
ARC
  8
daiko
 10
32.859967
 20
23.226298
 30
0.000000
 40
0.177761
 50
78.180850
 51
81.267677
  0
ARC
  8
daiko
 10
32.864139
 20
23.244845
 30
0.000000
 40
0.158753
 50
70.326548
 51
78.283426
  0
ARC
  8
daiko
 10
32.875694
 20
23.276662
 30
0.000000
 40
0.124903
 50
60.289711
 51
70.404368
  0
ARC
  8
daiko
 10
33.829998
 20
22.761639
 30
0.000000
 40
0.093824
 50
51.709345
 51
60.173857
  0
ARC
  8
daiko
 10
33.843950
 20
22.779122
 30
0.000000
 40
0.071456
 50
40.674892
 51
51.803755
  0
ARC
  8
daiko
 10
33.856778
 20
22.790300
 30
0.000000
 40
0.054443
 50
29.900852
 51
40.551489
  0
ARC
  8
daiko
 10
33.864890
 20
22.794957
 30
0.000000
 40
0.045088
 50
17.039439
 51
29.909267
  0
ARC
  8
daiko
 10
33.872257
 20
22.797185
 30
0.000000
 40
0.037392
 50
1.549459
 51
17.083707
  0
ARC
  8
daiko
 10
20.004808
 20
23.643424
 30
0.000000
 40
0.033698
 50
156.475949
 51
165.676266
  0
ARC
  8
daiko
 10
20.085500
 20
23.608520
 30
0.000000
 40
0.121615
 50
154.153165
 51
156.572153
  0
ARC
  8
daiko
 10
22.854954
 20
22.288466
 30
0.000000
 40
3.189579
 50
154.407779
 51
154.501495
  0
ARC
  8
daiko
 10
20.063673
 20
23.625963
 30
0.000000
 40
0.094400
 50
151.496366
 51
154.738986
  0
ARC
  8
daiko
 10
20.002415
 20
23.659453
 30
0.000000
 40
0.024586
 50
139.617535
 51
151.955686
  0
ARC
  8
daiko
 10
19.991907
 20
23.668422
 30
0.000000
 40
0.010770
 50
111.622335
 51
139.747875
  0
LINE
  8
daiko
 10
39.721031
 20
7.592122
 30
0.000000
 11
39.659569
 21
7.604109
 31
0.000000
  0
LINE
  8
daiko
 10
39.782492
 20
7.580135
 30
0.000000
 11
39.721031
 21
7.592122
 31
0.000000
  0
ARC
  8
daiko
 10
12.243969
 20
18.628824
 30
0.000000
 40
2.008965
 50
50.296564
 51
54.110291
  0
ARC
  8
daiko
 10
12.240725
 20
18.625091
 30
0.000000
 40
2.013910
 50
46.485918
 51
50.293400
  0
LINE
  8
daiko
 10
11.787735
 20
21.446146
 30
0.000000
 11
11.848862
 21
21.398272
 31
0.000000
  0
LINE
  8
daiko
 10
11.726607
 20
21.494020
 30
0.000000
 11
11.787735
 21
21.446146
 31
0.000000
  0
LINE
  8
daiko
 10
14.781943
 20
21.989151
 30
0.000000
 11
14.745900
 21
22.033452
 31
0.000000
  0
LINE
  8
daiko
 10
14.817986
 20
21.944850
 30
0.000000
 11
14.781943
 21
21.989151
 31
0.000000
  0
ARC
  8
daiko
 10
16.889042
 20
21.566479
 30
0.000000
 40
1.441772
 50
221.676475
 51
226.419014
  0
ARC
  8
daiko
 10
16.893116
 20
21.569899
 30
0.000000
 40
1.447088
 50
216.939479
 51
221.670393
  0
ARC
  8
daiko
 10
32.517896
 20
22.975395
 30
0.000000
 40
0.503818
 50
109.793498
 51
119.726516
  0
ARC
  8
daiko
 10
32.563324
 20
22.851588
 30
0.000000
 40
0.635694
 50
101.995625
 51
109.867351
  0
ARC
  8
daiko
 10
32.579894
 20
22.779447
 30
0.000000
 40
0.709705
 50
98.994416
 51
102.093696
  0
ARC
  8
daiko
 10
32.584970
 20
22.747638
 30
0.000000
 40
0.741916
 50
96.032846
 51
98.997556
  0
ARC
  8
daiko
 10
32.587341
 20
22.725541
 30
0.000000
 40
0.764140
 50
93.099872
 51
96.035538
  0
ARC
  8
daiko
 10
32.587988
 20
22.714304
 30
0.000000
 40
0.775396
 50
90.209692
 51
93.102689
  0
ARC
  8
daiko
 10
32.588024
 20
22.714760
 30
0.000000
 40
0.774940
 50
87.318885
 51
90.212424
  0
ARC
  8
daiko
 10
32.588631
 20
22.726922
 30
0.000000
 40
0.762763
 50
84.381931
 51
87.321719
  0
ARC
  8
daiko
 10
32.590925
 20
22.749890
 30
0.000000
 40
0.739681
 50
81.414515
 51
84.384617
  0
ARC
  8
daiko
 10
32.595882
 20
22.782461
 30
0.000000
 40
0.706735
 50
78.309100
 51
81.417677
  0
ARC
  8
daiko
 10
32.612351
 20
22.856433
 30
0.000000
 40
0.630961
 50
70.397897
 51
78.412478
  0
ARC
  8
daiko
 10
32.658082
 20
22.982831
 30
0.000000
 40
0.496546
 50
60.290377
 51
70.475899
  0
ARC
  8
daiko
 10
33.746569
 20
22.508404
 30
0.000000
 40
0.363221
 50
49.182749
 51
60.245650
  0
ARC
  8
daiko
 10
33.821331
 20
22.594229
 30
0.000000
 40
0.249402
 50
33.163728
 51
49.292989
  0
ARC
  8
daiko
 10
33.868457
 20
22.626937
 30
0.000000
 40
0.192066
 50
25.421167
 51
32.686431
  0
ARC
  8
daiko
 10
33.886841
 20
22.635685
 30
0.000000
 40
0.171707
 50
17.285697
 51
25.417767
  0
ARC
  8
daiko
 10
33.901079
 20
22.640171
 30
0.000000
 40
0.156780
 50
8.819800
 51
17.266691
  0
ARC
  8
daiko
 10
33.907261
 20
22.641200
 30
0.000000
 40
0.150512
 50
359.992322
 51
8.793444
  0
ARC
  8
daiko
 10
33.906968
 20
22.641252
 30
0.000000
 40
0.150806
 50
351.178670
 51
359.972390
  0
ARC
  8
daiko
 10
33.900286
 20
22.642361
 30
0.000000
 40
0.157578
 50
342.739775
 51
351.152963
  0
ARC
  8
daiko
 10
33.885504
 20
22.647013
 30
0.000000
 40
0.173075
 50
334.630095
 51
342.720870
  0
ARC
  8
daiko
 10
33.866597
 20
22.655989
 30
0.000000
 40
0.194004
 50
327.414412
 51
334.627573
  0
ARC
  8
daiko
 10
33.818029
 20
22.689609
 30
0.000000
 40
0.253042
 50
310.707891
 51
326.922774
  0
ARC
  8
daiko
 10
33.741018
 20
22.777953
 30
0.000000
 40
0.370239
 50
299.754414
 51
310.825539
  0
ARC
  8
daiko
 10
24.499975
 20
12.101163
 30
0.000000
 40
12.065917
 50
108.893945
 51
109.714359
  0
ARC
  8
daiko
 10
23.182900
 20
15.960595
 30
0.000000
 40
7.987942
 50
107.101939
 51
108.920062
  0
ARC
  8
daiko
 10
23.085899
 20
16.155609
 30
0.000000
 40
7.773105
 50
102.990588
 51
106.841274
  0
ARC
  8
daiko
 10
24.437420
 20
10.329745
 30
0.000000
 40
13.753680
 50
100.737916
 51
103.021124
  0
ARC
  8
daiko
 10
25.609674
 20
4.377457
 30
0.000000
 40
19.820199
 50
98.473858
 51
100.861399
  0
ARC
  8
daiko
 10
25.344309
 20
6.205131
 30
0.000000
 40
17.973375
 50
95.839531
 51
98.495707
  0
ARC
  8
daiko
 10
25.176199
 20
7.729296
 30
0.000000
 40
16.440019
 50
92.720028
 51
95.797135
  0
ARC
  8
daiko
 10
25.201692
 20
7.147372
 30
0.000000
 40
17.022498
 50
89.798069
 51
92.712786
  0
ARC
  8
daiko
 10
25.206578
 20
6.808865
 30
0.000000
 40
17.360986
 50
86.998186
 51
89.818134
  0
ARC
  8
daiko
 10
25.215291
 20
6.995413
 30
0.000000
 40
17.174238
 50
84.157739
 51
86.994622
  0
ARC
  8
daiko
 10
25.315331
 20
7.902580
 30
0.000000
 40
16.261601
 50
81.229378
 51
84.183037
  0
ARC
  8
daiko
 10
25.394038
 20
8.448247
 30
0.000000
 40
15.710315
 50
78.072894
 51
81.209622
  0
ARC
  8
daiko
 10
25.311133
 20
8.043407
 30
0.000000
 40
16.123549
 50
75.042479
 51
78.081964
  0
ARC
  8
daiko
 10
25.898365
 20
10.194912
 30
0.000000
 40
13.893381
 50
71.607611
 51
75.092072
  0
ARC
  8
daiko
 10
26.722777
 20
12.712059
 30
0.000000
 40
11.244700
 50
68.819046
 51
71.546880
  0
ARC
  8
daiko
 10
26.972704
 20
13.363931
 30
0.000000
 40
10.546564
 50
65.980206
 51
68.805529
  0
ARC
  8
daiko
 10
25.361880
 20
9.788125
 30
0.000000
 40
14.468421
 50
64.869994
 51
65.917658
  0
ARC
  8
daiko
 10
23.516060
 20
5.827593
 30
0.000000
 40
18.837949
 50
64.414535
 51
64.902924
  0
ARC
  8
daiko
 10
43.362255
 20
6.939318
 30
0.000000
 40
2.245695
 50
201.145073
 51
233.286229
  0
ARC
  8
daiko
 10
47.260764
 20
1.025745
 30
0.000000
 40
0.332651
 50
308.853383
 51
53.330383
  0
ARC
  8
daiko
 10
39.013180
 20
5.324650
 30
0.000000
 40
2.393844
 50
19.639594
 51
68.351896
  0
ARC
  8
daiko
 10
35.989059
 20
4.813715
 30
0.000000
 40
2.368687
 50
19.956997
 51
63.284770
  0
ARC
  8
daiko
 10
40.397267
 20
6.466028
 30
0.000000
 40
2.339265
 50
201.145073
 51
233.286229
  0
ARC
  8
daiko
 10
44.300963
 20
0.559543
 30
0.000000
 40
0.230297
 50
308.853383
 51
53.330383
  0
ARC
  8
daiko
 10
12.521427
 20
23.593223
 30
0.000000
 40
1.237929
 50
244.441094
 51
292.556931
  0
ARC
  8
daiko
 10
13.566819
 20
20.975729
 30
0.000000
 40
1.580809
 50
46.331254
 51
111.155727
  0
ARC
  8
daiko
 10
9.540890
 20
23.119868
 30
0.000000
 40
1.323959
 50
244.802311
 51
278.399406
  0
ARC
  8
daiko
 10
10.487005
 20
20.293313
 30
0.000000
 40
1.719032
 50
47.769230
 51
82.086377
  0
ARC
  8
daiko
 10
25.197298
 20
9.124440
 30
0.000000
 40
15.674499
 50
67.718201
 51
110.211287
  0
ARC
  8
daiko
 10
31.089777
 20
23.600286
 30
0.000000
 40
0.058035
 50
11.373089
 51
29.119144
  0
ARC
  8
daiko
 10
15.517339
 20
22.992508
 30
0.000000
 40
0.438835
 50
61.186729
 51
103.617469
  0
ARC
  8
daiko
 10
2.215287
 20
18.948633
 30
0.000000
 40
0.219417
 50
61.186729
 51
103.617469
  0
ARC
  8
daiko
 10
15.544922
 20
23.152103
 30
0.000000
 40
0.438835
 50
61.186729
 51
103.617469
  0
ARC
  8
daiko
 10
14.504446
 20
23.278906
 30
0.000000
 40
0.235440
 50
170.590914
 51
235.776360
  0
ARC
  8
daiko
 10
14.815489
 20
23.378839
 30
0.000000
 40
0.235440
 50
170.590914
 51
235.776360
  0
ARC
  8
daiko
 10
11.331119
 20
22.632735
 30
0.000000
 40
0.506348
 50
110.832692
 51
140.738086
  0
ARC
  8
daiko
 10
14.538816
 20
23.867263
 30
0.000000
 40
0.261745
 50
341.138843
 51
51.787532
  0
ARC
  8
daiko
 10
12.059211
 20
13.104231
 30
0.000000
 40
0.100676
 50
237.227542
 51
286.274830
  0
ARC
  8
daiko
 10
11.946245
 20
13.080688
 30
0.000000
 40
0.076185
 50
242.518558
 51
291.050908
  0
ARC
  8
daiko
 10
15.448371
 20
23.753285
 30
0.000000
 40
0.165338
 50
294.420636
 51
358.025593
  0
ARC
  8
daiko
 10
15.565819
 20
23.683698
 30
0.000000
 40
0.175497
 50
317.163512
 51
356.838977
  0
ARC
  8
daiko
 10
10.090248
 20
27.090709
 30
0.000000
 40
0.682463
 50
348.708774
 51
41.469904
  0
ARC
  8
daiko
 10
9.480885
 20
27.778901
 30
0.000000
 40
0.682463
 50
348.708774
 51
94.230206
  0
ARC
  8
daiko
 10
9.402231
 20
27.808002
 30
0.000000
 40
0.454975
 50
348.708792
 51
41.753477
  0
ARC
  8
daiko
 10
8.078739
 20
29.290668
 30
0.000000
 40
0.454975
 50
348.708792
 51
107.854663
  0
ARC
  8
daiko
 10
7.936597
 20
21.730647
 30
0.000000
 40
0.541111
 50
280.765610
 51
340.202461
  0
ARC
  8
daiko
 10
7.808529
 20
23.726441
 30
0.000000
 40
2.269580
 50
288.379759
 51
305.016952
  0
ARC
  8
daiko
 10
7.239886
 20
22.464706
 30
0.000000
 40
0.639773
 50
288.978342
 51
338.577783
  0
ARC
  8
daiko
 10
7.198262
 20
24.410104
 30
0.000000
 40
2.269580
 50
288.379759
 51
293.208812
  0
ARC
  8
daiko
 10
6.131026
 20
25.611305
 30
0.000000
 40
1.650603
 50
320.475206
 51
343.815644
  0
ARC
  8
daiko
 10
7.198262
 20
24.410104
 30
0.000000
 40
2.269580
 50
341.169422
 51
343.815612
  0
ARC
  8
daiko
 10
30.682707
 20
18.724579
 30
0.000000
 40
4.400809
 50
18.318552
 51
42.188505
  0
LINE
  8
daiko
 10
10.574710
 20
17.469075
 30
0.000000
 11
10.465744
 21
17.060457
 31
0.000000
  0
LINE
  8
daiko
 10
40.286987
 20
9.108068
 30
0.000000
 11
40.395953
 21
9.516686
 31
0.000000
  0
LINE
  8
daiko
 10
34.057059
 20
17.921705
 30
0.000000
 11
33.909635
 21
22.798196
 31
0.000000
  0
LINE
  8
daiko
 10
19.987938
 20
23.678435
 30
0.000000
 11
18.650635
 21
23.462215
 31
0.000000
  0
LINE
  8
daiko
 10
21.215213
 20
22.970671
 30
0.000000
 11
19.989784
 21
23.678096
 31
0.000000
  0
LINE
  8
daiko
 10
6.122805
 20
25.113400
 30
0.000000
 11
3.129000
 21
24.643408
 31
0.000000
  0
LINE
  8
daiko
 10
9.734285
 20
21.810110
 30
0.000000
 11
12.739067
 21
22.374575
 31
0.000000
  0
LINE
  8
daiko
 10
13.314569
 20
22.536283
 30
0.000000
 11
12.278347
 21
22.380716
 31
0.000000
  0
LINE
  8
daiko
 10
17.034041
 20
17.463220
 30
0.000000
 11
17.034041
 21
17.399923
 31
0.000000
  0
LINE
  8
daiko
 10
32.249192
 20
24.051639
 30
0.000000
 11
31.480202
 21
23.607711
 31
0.000000
  0
LINE
  8
daiko
 10
33.804813
 20
23.494924
 30
0.000000
 11
32.838899
 21
24.052535
 31
0.000000
  0
LINE
  8
daiko
 10
34.055938
 20
22.664633
 30
0.000000
 11
33.956598
 21
23.295563
 31
0.000000
  0
LINE
  8
daiko
 10
35.039661
 20
19.531793
 30
0.000000
 11
34.860499
 21
20.107752
 31
0.000000
  0
LINE
  8
daiko
 10
14.700726
 20
24.072922
 30
0.000000
 11
14.573288
 21
24.146490
 31
0.000000
  0
LINE
  8
daiko
 10
12.087424
 20
13.007590
 30
0.000000
 11
12.623505
 21
13.179823
 31
0.000000
  0
LINE
  8
daiko
 10
1.556782
 20
18.990513
 30
0.000000
 11
11.911088
 21
13.013100
 31
0.000000
  0
LINE
  8
daiko
 10
15.802139
 20
23.414698
 30
0.000000
 11
16.325446
 21
23.112599
 31
0.000000
  0
LINE
  8
daiko
 10
24.431331
 20
26.057659
 30
0.000000
 11
15.947807
 21
30.955093
 31
0.000000
  0
LINE
  8
daiko
 10
15.672772
 20
30.962854
 30
0.000000
 11
9.085203
 21
28.846380
 31
0.000000
  0
LINE
  8
daiko
 10
33.488746
 20
23.677386
 30
0.000000
 11
33.488746
 21
23.789749
 31
0.000000
  0
LINE
  8
daiko
 10
21.302026
 20
23.112319
 30
0.000000
 11
21.282035
 21
23.076537
 31
0.000000
  0
LINE
  8
daiko
 10
21.004211
 20
23.456684
 30
0.000000
 11
21.310789
 21
23.310264
 31
0.000000
  0
LINE
  8
daiko
 10
20.736120
 20
23.282993
 30
0.000000
 11
20.924532
 21
23.432838
 31
0.000000
  0
LINE
  8
daiko
 10
17.184886
 20
18.105759
 30
0.000000
 11
17.293901
 21
18.330177
 31
0.000000
  0
LINE
  8
daiko
 10
19.967325
 20
23.621453
 30
0.000000
 11
19.967325
 21
20.579559
 31
0.000000
  0
LINE
  8
daiko
 10
32.937598
 20
23.385145
 30
0.000000
 11
32.937598
 21
18.423384
 31
0.000000
  0
LINE
  8
daiko
 10
32.937598
 20
23.385145
 30
0.000000
 11
33.876663
 21
22.843035
 31
0.000000
  0
LINE
  8
daiko
 10
31.805822
 20
22.823731
 30
0.000000
 11
32.778325
 21
23.385145
 31
0.000000
  0
LINE
  8
daiko
 10
39.659569
 20
7.604109
 30
0.000000
 11
39.114509
 21
7.701478
 31
0.000000
  0
LINE
  8
daiko
 10
42.019739
 20
5.139097
 30
0.000000
 11
47.459423
 21
1.292562
 31
0.000000
  0
LINE
  8
daiko
 10
47.469446
 20
0.766692
 30
0.000000
 11
46.702045
 21
0.351636
 31
0.000000
  0
LINE
  8
daiko
 10
39.782492
 20
7.580135
 30
0.000000
 11
39.896281
 21
7.549649
 31
0.000000
  0
LINE
  8
daiko
 10
41.992617
 20
5.060790
 30
0.000000
 11
38.998812
 21
4.590798
 31
0.000000
  0
LINE
  8
daiko
 10
38.998812
 20
4.590798
 30
0.000000
 11
44.438497
 21
0.744262
 31
0.000000
  0
LINE
  8
daiko
 10
46.702045
 20
0.351636
 30
0.000000
 11
43.708240
 21
-0.118357
 31
0.000000
  0
LINE
  8
daiko
 10
43.708240
 20
-0.118357
 30
0.000000
 11
43.678035
 21
-0.034857
 31
0.000000
  0
LINE
  8
daiko
 10
44.445436
 20
0.380198
 30
0.000000
 11
43.678035
 21
-0.034857
 31
0.000000
  0
LINE
  8
daiko
 10
5.970824
 20
24.723336
 30
0.000000
 11
6.341638
 21
23.651203
 31
0.000000
  0
LINE
  8
daiko
 10
11.987336
 20
22.476434
 30
0.000000
 11
6.221222
 21
25.098868
 31
0.000000
  0
LINE
  8
daiko
 10
3.347834
 20
23.181210
 30
0.000000
 11
6.341638
 21
23.651203
 31
0.000000
  0
LINE
  8
daiko
 10
2.977019
 20
24.253344
 30
0.000000
 11
3.347834
 21
23.181210
 31
0.000000
  0
LINE
  8
daiko
 10
8.977224
 20
21.921892
 30
0.000000
 11
5.474274
 21
23.515037
 31
0.000000
  0
LINE
  8
daiko
 10
14.658349
 20
22.119198
 30
0.000000
 11
14.745900
 21
22.033452
 31
0.000000
  0
LINE
  8
daiko
 10
11.642398
 20
21.566159
 30
0.000000
 11
11.726607
 21
21.494020
 31
0.000000
  0
LINE
  8
daiko
 10
13.627368
 20
20.085588
 30
0.000000
 11
14.034320
 21
19.695760
 31
0.000000
  0
LINE
  8
daiko
 10
11.848862
 20
21.398272
 30
0.000000
 11
13.421678
 21
20.256381
 31
0.000000
  0
LINE
  8
daiko
 10
15.736500
 20
20.700241
 30
0.000000
 11
14.817986
 21
21.944850
 31
0.000000
  0
LINE
  8
daiko
 10
17.965110
 20
22.085355
 30
0.000000
 11
17.407554
 21
19.994538
 31
0.000000
  0
LINE
  8
daiko
 10
18.944817
 20
24.317091
 30
0.000000
 11
17.965110
 21
22.085355
 31
0.000000
  0
LINE
  8
daiko
 10
21.069144
 20
23.090742
 30
0.000000
 11
18.944817
 21
24.317091
 31
0.000000
  0
LINE
  8
daiko
 10
16.467487
 20
19.973771
 30
0.000000
 11
15.895115
 21
20.522059
 31
0.000000
  0
LINE
  8
daiko
 10
15.521924
 20
20.990997
 30
0.000000
 11
15.719756
 21
21.732861
 31
0.000000
  0
LINE
  8
daiko
 10
15.719756
 20
21.732861
 30
0.000000
 11
17.965110
 21
22.085355
 31
0.000000
  0
LINE
  8
daiko
 10
15.719756
 20
21.732861
 30
0.000000
 11
16.699463
 21
23.964596
 31
0.000000
  0
LINE
  8
daiko
 10
16.699463
 20
23.964596
 30
0.000000
 11
18.944817
 21
24.317091
 31
0.000000
  0
LINE
  8
daiko
 10
32.268072
 20
23.412912
 30
0.000000
 11
31.566738
 21
23.008040
 31
0.000000
  0
LINE
  8
daiko
 10
32.904173
 20
23.414106
 30
0.000000
 11
33.926830
 21
22.823739
 31
0.000000
  0
LINE
  8
daiko
 10
31.140476
 20
23.628527
 30
0.000000
 11
31.152811
 21
23.622595
 31
0.000000
  0
LINE
  8
daiko
 10
2.400685
 20
19.094906
 30
0.000000
 11
5.666627
 21
20.144197
 31
0.000000
  0
LINE
  8
daiko
 10
5.666627
 20
20.144197
 30
0.000000
 11
5.586979
 21
20.190177
 31
0.000000
  0
LINE
  8
daiko
 10
10.795046
 20
21.935010
 30
0.000000
 11
5.585091
 21
20.261140
 31
0.000000
  0
LINE
  8
daiko
 10
12.961794
 20
22.488009
 30
0.000000
 11
14.531326
 21
22.992273
 31
0.000000
  0
LINE
  8
daiko
 10
14.372029
 20
23.084234
 30
0.000000
 11
14.531326
 21
22.992273
 31
0.000000
  0
LINE
  8
daiko
 10
15.414020
 20
23.419007
 30
0.000000
 11
14.683072
 21
23.184166
 31
0.000000
  0
LINE
  8
daiko
 10
16.297427
 20
23.048774
 30
0.000000
 11
15.728838
 21
23.377013
 31
0.000000
  0
LINE
  8
daiko
 10
12.004714
 20
13.019581
 30
0.000000
 11
11.973610
 21
13.009587
 31
0.000000
  0
LINE
  8
daiko
 10
2.163628
 20
19.161883
 30
0.000000
 11
1.619304
 21
18.987001
 31
0.000000
  0
LINE
  8
daiko
 10
2.400685
 20
19.094906
 30
0.000000
 11
2.321037
 21
19.140886
 31
0.000000
  0
LINE
  8
daiko
 10
15.765060
 20
23.531621
 30
0.000000
 11
15.756421
 21
23.536608
 31
0.000000
  0
LINE
  8
daiko
 10
14.683072
 20
23.184166
 30
0.000000
 11
14.710654
 21
23.343761
 31
0.000000
  0
LINE
  8
daiko
 10
15.441603
 20
23.578602
 30
0.000000
 11
14.710654
 21
23.343761
 31
0.000000
  0
LINE
  8
daiko
 10
14.583216
 20
23.417329
 30
0.000000
 11
14.659068
 21
23.856216
 31
0.000000
  0
LINE
  8
daiko
 10
14.710654
 20
23.343761
 30
0.000000
 11
14.786506
 21
23.782647
 31
0.000000
  0
LINE
  8
daiko
 10
14.348026
 20
23.756283
 30
0.000000
 11
14.272174
 21
23.317397
 31
0.000000
  0
LINE
  8
daiko
 10
11.315502
 20
22.781985
 30
0.000000
 11
14.348026
 21
23.756283
 31
0.000000
  0
LINE
  8
daiko
 10
14.416983
 20
24.155271
 30
0.000000
 11
11.151041
 21
23.105979
 31
0.000000
  0
LINE
  8
daiko
 10
1.522470
 20
19.106623
 30
0.000000
 11
1.564670
 21
19.350797
 31
0.000000
  0
LINE
  8
daiko
 10
1.646887
 20
19.146596
 30
0.000000
 11
1.663117
 21
19.240509
 31
0.000000
  0
LINE
  8
daiko
 10
16.499698
 20
23.509539
 30
0.000000
 11
15.848658
 21
23.407334
 31
0.000000
  0
LINE
  8
daiko
 10
15.892244
 20
23.570781
 30
0.000000
 11
15.947807
 21
30.955093
 31
0.000000
  0
LINE
  8
daiko
 10
16.573535
 20
23.677735
 30
0.000000
 11
15.892244
 21
23.570781
 31
0.000000
  0
LINE
  8
daiko
 10
15.613611
 20
23.747588
 30
0.000000
 11
15.672772
 21
30.962854
 31
0.000000
  0
LINE
  8
daiko
 10
11.997222
 20
22.471982
 30
0.000000
 11
14.281451
 21
23.205865
 31
0.000000
  0
LINE
  8
daiko
 10
14.710654
 20
23.343761
 30
0.000000
 11
15.516727
 21
23.602738
 31
0.000000
  0
LINE
  8
daiko
 10
15.741049
 20
23.674020
 30
0.000000
 11
15.800271
 21
30.896817
 31
0.000000
  0
LINE
  8
daiko
 10
31.152811
 20
23.622595
 30
0.000000
 11
31.241740
 21
23.594568
 31
0.000000
  0
LINE
  8
daiko
 10
10.889257
 20
21.965278
 30
0.000000
 11
10.795046
 21
21.935010
 31
0.000000
  0
LINE
  8
daiko
 10
12.004714
 20
13.019581
 30
0.000000
 11
12.590047
 21
13.207638
 31
0.000000
  0
LINE
  8
daiko
 10
9.992257
 20
28.230847
 30
0.000000
 11
10.623639
 21
27.516444
 31
0.000000
  0
LINE
  8
daiko
 10
7.475084
 20
30.106978
 30
0.000000
 11
7.844445
 21
29.693195
 31
0.000000
  0
LINE
  8
daiko
 10
8.418159
 20
29.593648
 30
0.000000
 11
9.741651
 21
28.110982
 31
0.000000
  0
LINE
  8
daiko
 10
7.361401
 20
29.537598
 30
0.000000
 11
7.939242
 21
29.723731
 31
0.000000
  0
LINE
  8
daiko
 10
7.390244
 20
29.682061
 30
0.000000
 11
7.475084
 21
30.106978
 31
0.000000
  0
LINE
  8
daiko
 10
7.114597
 20
29.990860
 30
0.000000
 11
7.475084
 21
30.106978
 31
0.000000
  0
LINE
  8
daiko
 10
7.019177
 20
30.097756
 30
0.000000
 11
7.390244
 21
29.682061
 31
0.000000
  0
LINE
  8
daiko
 10
1.229896
 20
19.725834
 30
0.000000
 11
1.274114
 21
19.947299
 31
0.000000
  0
LINE
  8
daiko
 10
4.041527
 20
28.309175
 30
0.000000
 11
3.732307
 21
28.655584
 31
0.000000
  0
LINE
  8
daiko
 10
2.986140
 20
23.023269
 30
0.000000
 11
2.676920
 21
23.369678
 31
0.000000
  0
LINE
  8
daiko
 10
1.372374
 20
22.503448
 30
0.000000
 11
1.063154
 21
22.849857
 31
0.000000
  0
LINE
  8
daiko
 10
2.118540
 20
28.135763
 30
0.000000
 11
3.732307
 21
28.655584
 31
0.000000
  0
LINE
  8
daiko
 10
1.063154
 20
22.849857
 30
0.000000
 11
2.118540
 21
28.135763
 31
0.000000
  0
LINE
  8
daiko
 10
1.063154
 20
22.849857
 30
0.000000
 11
2.676920
 21
23.369678
 31
0.000000
  0
LINE
  8
daiko
 10
2.676920
 20
23.369678
 30
0.000000
 11
3.732307
 21
28.655584
 31
0.000000
  0
LINE
  8
daiko
 10
8.445726
 20
21.547374
 30
0.000000
 11
8.524159
 21
21.572638
 31
0.000000
  0
LINE
  8
daiko
 10
7.835459
 20
22.231037
 30
0.000000
 11
8.445726
 21
21.547374
 31
0.000000
  0
LINE
  8
daiko
 10
9.377898
 20
23.777505
 30
0.000000
 11
10.150139
 21
27.645278
 31
0.000000
  0
LINE
  8
daiko
 10
7.835459
 20
22.231037
 30
0.000000
 11
7.913892
 21
22.256301
 31
0.000000
  0
LINE
  8
daiko
 10
2.986140
 20
23.023269
 30
0.000000
 11
3.138512
 21
23.786422
 31
0.000000
  0
LINE
  8
daiko
 10
1.372374
 20
22.503448
 30
0.000000
 11
2.986140
 21
23.023269
 31
0.000000
  0
LINE
  8
daiko
 10
5.486735
 20
29.466498
 30
0.000000
 11
1.354132
 21
28.135317
 31
0.000000
  0
LINE
  8
daiko
 10
0.003511
 20
21.370716
 30
0.000000
 11
1.354132
 21
28.135317
 31
0.000000
  0
LINE
  8
daiko
 10
5.966082
 20
23.291362
 30
0.000000
 11
0.003511
 21
21.370716
 31
0.000000
  0
LINE
  8
daiko
 10
0.003511
 20
21.370716
 30
0.000000
 11
1.417780
 21
19.786355
 31
0.000000
  0
LINE
  8
daiko
 10
1.417780
 20
19.786355
 30
0.000000
 11
1.229896
 21
19.725834
 31
0.000000
  0
LINE
  8
daiko
 10
1.229896
 20
19.725834
 30
0.000000
 11
1.724647
 21
19.171579
 31
0.000000
  0
LINE
  8
daiko
 10
7.019177
 20
30.097756
 30
0.000000
 11
5.516104
 21
29.613591
 31
0.000000
  0
LINE
  8
daiko
 10
4.568888
 20
24.869453
 30
0.000000
 11
5.516104
 21
29.613591
 31
0.000000
  0
LINE
  8
daiko
 10
7.716215
 20
25.151234
 30
0.000000
 11
8.524909
 21
29.201586
 31
0.000000
  0
LINE
  8
daiko
 10
7.447947
 20
21.859710
 30
0.000000
 11
6.309351
 21
23.135243
 31
0.000000
  0
LINE
  8
daiko
 10
47.525023
 20
1.033924
 30
0.000000
 11
44.531219
 21
0.563931
 31
0.000000
  0
LINE
  8
daiko
 10
9.066879
 20
23.804661
 30
0.000000
 11
9.848400
 21
27.718920
 31
0.000000
  0
LINE
  8
daiko
 10
10.041579
 20
23.361367
 30
0.000000
 11
10.759502
 21
26.957085
 31
0.000000
  0
LINE
  8
daiko
 10
6.020801
 20
25.097387
 30
0.000000
 11
7.019177
 21
30.097756
 31
0.000000
  0
LINE
  8
daiko
 10
6.454019
 20
24.992992
 30
0.000000
 11
7.361401
 21
29.537598
 31
0.000000
  0
LINE
  8
daiko
 10
3.315462
 20
24.672680
 30
0.000000
 11
4.041527
 21
28.309175
 31
0.000000
  0
LINE
  8
daiko
 10
35.630146
 20
14.693986
 30
0.000000
 11
36.382463
 21
14.240500
 31
0.000000
  0
LINE
  8
daiko
 10
36.382463
 20
14.240500
 30
0.000000
 11
37.078695
 21
13.781121
 31
0.000000
  0
LINE
  8
daiko
 10
37.078695
 20
13.781121
 30
0.000000
 11
37.715295
 21
13.318192
 31
0.000000
  0
LINE
  8
daiko
 10
37.715295
 20
13.318192
 30
0.000000
 11
38.289018
 21
12.854071
 31
0.000000
  0
LINE
  8
daiko
 10
38.289018
 20
12.854071
 30
0.000000
 11
38.796942
 21
12.391122
 31
0.000000
  0
LINE
  8
daiko
 10
38.796942
 20
12.391122
 30
0.000000
 11
39.236477
 21
11.931706
 31
0.000000
  0
LINE
  8
daiko
 10
39.236477
 20
11.931706
 30
0.000000
 11
39.605385
 21
11.478162
 31
0.000000
  0
LINE
  8
daiko
 10
39.605385
 20
11.478162
 30
0.000000
 11
39.901784
 21
11.032804
 31
0.000000
  0
LINE
  8
daiko
 10
39.901784
 20
11.032804
 30
0.000000
 11
40.124165
 21
10.597898
 31
0.000000
  0
LINE
  8
daiko
 10
40.124165
 20
10.597898
 30
0.000000
 11
40.271395
 21
10.175663
 31
0.000000
  0
LINE
  8
daiko
 10
40.271395
 20
10.175663
 30
0.000000
 11
40.342724
 21
9.768250
 31
0.000000
  0
LINE
  8
daiko
 10
40.342724
 20
9.768250
 30
0.000000
 11
40.337787
 21
9.377734
 31
0.000000
  0
LINE
  8
daiko
 10
40.337787
 20
9.377734
 30
0.000000
 11
40.256610
 21
9.006105
 31
0.000000
  0
LINE
  8
daiko
 10
40.256610
 20
9.006105
 30
0.000000
 11
40.099607
 21
8.655258
 31
0.000000
  0
LINE
  8
daiko
 10
40.099607
 20
8.655258
 30
0.000000
 11
39.867577
 21
8.326980
 31
0.000000
  0
LINE
  8
daiko
 10
39.867577
 20
8.326980
 30
0.000000
 11
39.561704
 21
8.022944
 31
0.000000
  0
LINE
  8
daiko
 10
39.561704
 20
8.022944
 30
0.000000
 11
39.183545
 21
7.744700
 31
0.000000
  0
LINE
  8
daiko
 10
39.183545
 20
7.744700
 30
0.000000
 11
38.735029
 21
7.493665
 31
0.000000
  0
LINE
  8
daiko
 10
38.735029
 20
7.493665
 30
0.000000
 11
38.218439
 21
7.271118
 31
0.000000
  0
LINE
  8
daiko
 10
38.218439
 20
7.271118
 30
0.000000
 11
37.636410
 21
7.078193
 31
0.000000
  0
LINE
  8
daiko
 10
37.636410
 20
7.078193
 30
0.000000
 11
36.991905
 21
6.915874
 31
0.000000
  0
LINE
  8
daiko
 10
36.991905
 20
6.915874
 30
0.000000
 11
36.288211
 21
6.784988
 31
0.000000
  0
LINE
  8
daiko
 10
36.288211
 20
6.784988
 30
0.000000
 11
35.528913
 21
6.686202
 31
0.000000
  0
LINE
  8
daiko
 10
35.528913
 20
6.686202
 30
0.000000
 11
34.717879
 21
6.620018
 31
0.000000
  0
LINE
  8
daiko
 10
34.717879
 20
6.620018
 30
0.000000
 11
33.859244
 21
6.586775
 31
0.000000
  0
LINE
  8
daiko
 10
33.859244
 20
6.586775
 30
0.000000
 11
32.957381
 21
6.586641
 31
0.000000
  0
LINE
  8
daiko
 10
32.957381
 20
6.586641
 30
0.000000
 11
32.016887
 21
6.619618
 31
0.000000
  0
LINE
  8
daiko
 10
32.016887
 20
6.619618
 30
0.000000
 11
31.042555
 21
6.685538
 31
0.000000
  0
LINE
  8
daiko
 10
31.042555
 20
6.685538
 30
0.000000
 11
30.039349
 21
6.784063
 31
0.000000
  0
LINE
  8
daiko
 10
30.039349
 20
6.784063
 30
0.000000
 11
29.012382
 21
6.914693
 31
0.000000
  0
LINE
  8
daiko
 10
29.012382
 20
6.914693
 30
0.000000
 11
27.966886
 21
7.076762
 31
0.000000
  0
LINE
  8
daiko
 10
27.966886
 20
7.076762
 30
0.000000
 11
26.908190
 21
7.269444
 31
0.000000
  0
LINE
  8
daiko
 10
26.908190
 20
7.269444
 30
0.000000
 11
25.841688
 21
7.491756
 31
0.000000
  0
LINE
  8
daiko
 10
25.841688
 20
7.491756
 30
0.000000
 11
24.772814
 21
7.742567
 31
0.000000
  0
LINE
  8
daiko
 10
24.772814
 20
7.742567
 30
0.000000
 11
23.707017
 21
8.020598
 31
0.000000
  0
LINE
  8
daiko
 10
23.707017
 20
8.020598
 30
0.000000
 11
22.649726
 21
8.324432
 31
0.000000
  0
LINE
  8
daiko
 10
22.649726
 20
8.324432
 30
0.000000
 11
21.606329
 21
8.652521
 31
0.000000
  0
LINE
  8
daiko
 10
21.606329
 20
8.652521
 30
0.000000
 11
20.582143
 21
9.003193
 31
0.000000
  0
LINE
  8
daiko
 10
20.582143
 20
9.003193
 30
0.000000
 11
19.582388
 21
9.374661
 31
0.000000
  0
LINE
  8
daiko
 10
19.582388
 20
9.374661
 30
0.000000
 11
18.612157
 21
9.765033
 31
0.000000
  0
LINE
  8
daiko
 10
18.612157
 20
9.765033
 30
0.000000
 11
17.676396
 21
10.172319
 31
0.000000
  0
LINE
  8
daiko
 10
17.676396
 20
10.172319
 30
0.000000
 11
16.779871
 21
10.594443
 31
0.000000
  0
LINE
  8
daiko
 10
16.779871
 20
10.594443
 30
0.000000
 11
15.927153
 21
11.029255
 31
0.000000
  0
LINE
  8
daiko
 10
15.927153
 20
11.029255
 30
0.000000
 11
15.122585
 21
11.474539
 31
0.000000
  0
LINE
  8
daiko
 10
15.122585
 20
11.474539
 30
0.000000
 11
14.370268
 21
11.928025
 31
0.000000
  0
LINE
  8
daiko
 10
14.370268
 20
11.928025
 30
0.000000
 11
13.674036
 21
12.387404
 31
0.000000
  0
LINE
  8
daiko
 10
13.674036
 20
12.387404
 30
0.000000
 11
13.037436
 21
12.850333
 31
0.000000
  0
LINE
  8
daiko
 10
13.037436
 20
12.850333
 30
0.000000
 11
12.463713
 21
13.314455
 31
0.000000
  0
LINE
  8
daiko
 10
12.463713
 20
13.314455
 30
0.000000
 11
11.955789
 21
13.777403
 31
0.000000
  0
LINE
  8
daiko
 10
11.955789
 20
13.777403
 30
0.000000
 11
11.516254
 21
14.236819
 31
0.000000
  0
LINE
  8
daiko
 10
11.516254
 20
14.236819
 30
0.000000
 11
11.147347
 21
14.690363
 31
0.000000
  0
LINE
  8
daiko
 10
11.147347
 20
14.690363
 30
0.000000
 11
10.850947
 21
15.135722
 31
0.000000
  0
LINE
  8
daiko
 10
10.850947
 20
15.135722
 30
0.000000
 11
10.628566
 21
15.570627
 31
0.000000
  0
LINE
  8
daiko
 10
10.628566
 20
15.570627
 30
0.000000
 11
10.481336
 21
15.992862
 31
0.000000
  0
LINE
  8
daiko
 10
10.481336
 20
15.992862
 30
0.000000
 11
10.410008
 21
16.400276
 31
0.000000
  0
LINE
  8
daiko
 10
10.410008
 20
16.400276
 30
0.000000
 11
10.414945
 21
16.790792
 31
0.000000
  0
LINE
  8
daiko
 10
10.414945
 20
16.790792
 30
0.000000
 11
10.496121
 21
17.162420
 31
0.000000
  0
LINE
  8
daiko
 10
10.496121
 20
17.162420
 30
0.000000
 11
10.653125
 21
17.513267
 31
0.000000
  0
LINE
  8
daiko
 10
10.653125
 20
17.513267
 30
0.000000
 11
10.885154
 21
17.841545
 31
0.000000
  0
LINE
  8
daiko
 10
10.885154
 20
17.841545
 30
0.000000
 11
11.191027
 21
18.145581
 31
0.000000
  0
LINE
  8
daiko
 10
11.191027
 20
18.145581
 30
0.000000
 11
11.569186
 21
18.423825
 31
0.000000
  0
LINE
  8
daiko
 10
11.569186
 20
18.423825
 30
0.000000
 11
12.017703
 21
18.674860
 31
0.000000
  0
LINE
  8
daiko
 10
12.017703
 20
18.674860
 30
0.000000
 11
12.534292
 21
18.897407
 31
0.000000
  0
LINE
  8
daiko
 10
12.534292
 20
18.897407
 30
0.000000
 11
13.116322
 21
19.090332
 31
0.000000
  0
LINE
  8
daiko
 10
13.116322
 20
19.090332
 30
0.000000
 11
13.760826
 21
19.252651
 31
0.000000
  0
LINE
  8
daiko
 10
13.760826
 20
19.252651
 30
0.000000
 11
14.464520
 21
19.383537
 31
0.000000
  0
LINE
  8
daiko
 10
14.464520
 20
19.383537
 30
0.000000
 11
15.223819
 21
19.482323
 31
0.000000
  0
LINE
  8
daiko
 10
15.223819
 20
19.482323
 30
0.000000
 11
16.034852
 21
19.548507
 31
0.000000
  0
LINE
  8
daiko
 10
16.034852
 20
19.548507
 30
0.000000
 11
16.893488
 21
19.581750
 31
0.000000
  0
LINE
  8
daiko
 10
16.893488
 20
19.581750
 30
0.000000
 11
17.795350
 21
19.581884
 31
0.000000
  0
LINE
  8
daiko
 10
17.795350
 20
19.581884
 30
0.000000
 11
18.735844
 21
19.548907
 31
0.000000
  0
LINE
  8
daiko
 10
18.735844
 20
19.548907
 30
0.000000
 11
19.710176
 21
19.482987
 31
0.000000
  0
LINE
  8
daiko
 10
19.710176
 20
19.482987
 30
0.000000
 11
20.713382
 21
19.384462
 31
0.000000
  0
LINE
  8
daiko
 10
20.713382
 20
19.384462
 30
0.000000
 11
21.740349
 21
19.253832
 31
0.000000
  0
LINE
  8
daiko
 10
21.740349
 20
19.253832
 30
0.000000
 11
22.785845
 21
19.091763
 31
0.000000
  0
LINE
  8
daiko
 10
22.785845
 20
19.091763
 30
0.000000
 11
23.844541
 21
18.899081
 31
0.000000
  0
LINE
  8
daiko
 10
23.844541
 20
18.899081
 30
0.000000
 11
24.911044
 21
18.676769
 31
0.000000
  0
LINE
  8
daiko
 10
24.911044
 20
18.676769
 30
0.000000
 11
25.979917
 21
18.425958
 31
0.000000
  0
LINE
  8
daiko
 10
25.979917
 20
18.425958
 30
0.000000
 11
27.045715
 21
18.147927
 31
0.000000
  0
LINE
  8
daiko
 10
27.045715
 20
18.147927
 30
0.000000
 11
28.103006
 21
17.844093
 31
0.000000
  0
LINE
  8
daiko
 10
28.103006
 20
17.844093
 30
0.000000
 11
29.146403
 21
17.516004
 31
0.000000
  0
LINE
  8
daiko
 10
29.146403
 20
17.516004
 30
0.000000
 11
30.170588
 21
17.165332
 31
0.000000
  0
LINE
  8
daiko
 10
30.170588
 20
17.165332
 30
0.000000
 11
31.170344
 21
16.793864
 31
0.000000
  0
LINE
  8
daiko
 10
31.170344
 20
16.793864
 30
0.000000
 11
32.140574
 21
16.403492
 31
0.000000
  0
LINE
  8
daiko
 10
32.140574
 20
16.403492
 30
0.000000
 11
33.076336
 21
15.996206
 31
0.000000
  0
LINE
  8
daiko
 10
33.076336
 20
15.996206
 30
0.000000
 11
33.972860
 21
15.574082
 31
0.000000
  0
LINE
  8
daiko
 10
33.972860
 20
15.574082
 30
0.000000
 11
34.825579
 21
15.139270
 31
0.000000
  0
LINE
  8
daiko
 10
34.825579
 20
15.139270
 30
0.000000
 11
35.630146
 21
14.693986
 31
0.000000
  0
LINE
  8
daiko
 10
35.739112
 20
15.102604
 30
0.000000
 11
36.491429
 21
14.649118
 31
0.000000
  0
LINE
  8
daiko
 10
36.491429
 20
14.649118
 30
0.000000
 11
37.187661
 21
14.189739
 31
0.000000
  0
LINE
  8
daiko
 10
37.187661
 20
14.189739
 30
0.000000
 11
37.824261
 21
13.726810
 31
0.000000
  0
LINE
  8
daiko
 10
37.824261
 20
13.726810
 30
0.000000
 11
38.397984
 21
13.262689
 31
0.000000
  0
LINE
  8
daiko
 10
38.397984
 20
13.262689
 30
0.000000
 11
38.905908
 21
12.799740
 31
0.000000
  0
LINE
  8
daiko
 10
38.905908
 20
12.799740
 30
0.000000
 11
39.345443
 21
12.340324
 31
0.000000
  0
LINE
  8
daiko
 10
39.345443
 20
12.340324
 30
0.000000
 11
39.714350
 21
11.886780
 31
0.000000
  0
LINE
  8
daiko
 10
39.714350
 20
11.886780
 30
0.000000
 11
40.010750
 21
11.441422
 31
0.000000
  0
LINE
  8
daiko
 10
40.010750
 20
11.441422
 30
0.000000
 11
40.233131
 21
11.006516
 31
0.000000
  0
LINE
  8
daiko
 10
40.233131
 20
11.006516
 30
0.000000
 11
40.380361
 21
10.584281
 31
0.000000
  0
LINE
  8
daiko
 10
40.380361
 20
10.584281
 30
0.000000
 11
40.451689
 21
10.176868
 31
0.000000
  0
LINE
  8
daiko
 10
40.451689
 20
10.176868
 30
0.000000
 11
40.446752
 21
9.786352
 31
0.000000
  0
LINE
  8
daiko
 10
40.446752
 20
9.786352
 30
0.000000
 11
40.395953
 21
9.516686
 31
0.000000
  0
LINE
  8
daiko
 10
10.574710
 20
17.469075
 30
0.000000
 11
10.605087
 21
17.571038
 31
0.000000
  0
LINE
  8
daiko
 10
10.605087
 20
17.571038
 30
0.000000
 11
10.762090
 21
17.921885
 31
0.000000
  0
LINE
  8
daiko
 10
10.762090
 20
17.921885
 30
0.000000
 11
10.994120
 21
18.250163
 31
0.000000
  0
LINE
  8
daiko
 10
10.994120
 20
18.250163
 30
0.000000
 11
11.299993
 21
18.554199
 31
0.000000
  0
LINE
  8
daiko
 10
11.299993
 20
18.554199
 30
0.000000
 11
11.678151
 21
18.832443
 31
0.000000
  0
LINE
  8
daiko
 10
11.678151
 20
18.832443
 30
0.000000
 11
12.126668
 21
19.083478
 31
0.000000
  0
LINE
  8
daiko
 10
12.126668
 20
19.083478
 30
0.000000
 11
12.643258
 21
19.306025
 31
0.000000
  0
LINE
  8
daiko
 10
12.643258
 20
19.306025
 30
0.000000
 11
13.225287
 21
19.498950
 31
0.000000
  0
LINE
  8
daiko
 10
13.225287
 20
19.498950
 30
0.000000
 11
13.869791
 21
19.661269
 31
0.000000
  0
LINE
  8
daiko
 10
13.869791
 20
19.661269
 30
0.000000
 11
14.573486
 21
19.792155
 31
0.000000
  0
LINE
  8
daiko
 10
14.573486
 20
19.792155
 30
0.000000
 11
15.332784
 21
19.890941
 31
0.000000
  0
LINE
  8
daiko
 10
15.332784
 20
19.890941
 30
0.000000
 11
16.143818
 21
19.957125
 31
0.000000
  0
LINE
  8
daiko
 10
16.143818
 20
19.957125
 30
0.000000
 11
17.002453
 21
19.990368
 31
0.000000
  0
LINE
  8
daiko
 10
17.002453
 20
19.990368
 30
0.000000
 11
17.904316
 21
19.990502
 31
0.000000
  0
LINE
  8
daiko
 10
17.904316
 20
19.990502
 30
0.000000
 11
18.844810
 21
19.957525
 31
0.000000
  0
LINE
  8
daiko
 10
18.844810
 20
19.957525
 30
0.000000
 11
19.819142
 21
19.891605
 31
0.000000
  0
LINE
  8
daiko
 10
19.819142
 20
19.891605
 30
0.000000
 11
20.822348
 21
19.793080
 31
0.000000
  0
LINE
  8
daiko
 10
20.822348
 20
19.793080
 30
0.000000
 11
21.849315
 21
19.662450
 31
0.000000
  0
LINE
  8
daiko
 10
21.849315
 20
19.662450
 30
0.000000
 11
22.894811
 21
19.500381
 31
0.000000
  0
LINE
  8
daiko
 10
22.894811
 20
19.500381
 30
0.000000
 11
23.953507
 21
19.307699
 31
0.000000
  0
LINE
  8
daiko
 10
23.953507
 20
19.307699
 30
0.000000
 11
25.020009
 21
19.085387
 31
0.000000
  0
LINE
  8
daiko
 10
25.020009
 20
19.085387
 30
0.000000
 11
26.088883
 21
18.834576
 31
0.000000
  0
LINE
  8
daiko
 10
26.088883
 20
18.834576
 30
0.000000
 11
27.154680
 21
18.556545
 31
0.000000
  0
LINE
  8
daiko
 10
27.154680
 20
18.556545
 30
0.000000
 11
28.211971
 21
18.252711
 31
0.000000
  0
LINE
  8
daiko
 10
28.211971
 20
18.252711
 30
0.000000
 11
29.255368
 21
17.924622
 31
0.000000
  0
LINE
  8
daiko
 10
29.255368
 20
17.924622
 30
0.000000
 11
30.279554
 21
17.573950
 31
0.000000
  0
LINE
  8
daiko
 10
30.279554
 20
17.573950
 30
0.000000
 11
31.279309
 21
17.202482
 31
0.000000
  0
LINE
  8
daiko
 10
31.279309
 20
17.202482
 30
0.000000
 11
32.249540
 21
16.812110
 31
0.000000
  0
LINE
  8
daiko
 10
32.249540
 20
16.812110
 30
0.000000
 11
33.185301
 21
16.404824
 31
0.000000
  0
LINE
  8
daiko
 10
33.185301
 20
16.404824
 30
0.000000
 11
34.081826
 21
15.982700
 31
0.000000
  0
LINE
  8
daiko
 10
34.081826
 20
15.982700
 30
0.000000
 11
34.934544
 21
15.547888
 31
0.000000
  0
LINE
  8
daiko
 10
34.934544
 20
15.547888
 30
0.000000
 11
35.739112
 21
15.102604
 31
0.000000
  0
LINE
  8
daiko
 10
16.639850
 20
11.516976
 30
0.000000
 11
17.381927
 21
11.107754
 31
0.000000
  0
LINE
  8
daiko
 10
17.381927
 20
11.107754
 30
0.000000
 11
18.171756
 21
10.709190
 31
0.000000
  0
LINE
  8
daiko
 10
18.171756
 20
10.709190
 30
0.000000
 11
19.004587
 21
10.323681
 31
0.000000
  0
LINE
  8
daiko
 10
19.004587
 20
10.323681
 30
0.000000
 11
19.875411
 21
9.953546
 31
0.000000
  0
LINE
  8
daiko
 10
19.875411
 20
9.953546
 30
0.000000
 11
20.778991
 21
9.601011
 31
0.000000
  0
LINE
  8
daiko
 10
20.778991
 20
9.601011
 30
0.000000
 11
21.709892
 21
9.268195
 31
0.000000
  0
LINE
  8
daiko
 10
21.709892
 20
9.268195
 30
0.000000
 11
22.662516
 21
8.957102
 31
0.000000
  0
LINE
  8
daiko
 10
22.662516
 20
8.957102
 30
0.000000
 11
23.631134
 21
8.669600
 31
0.000000
  0
LINE
  8
daiko
 10
23.631134
 20
8.669600
 30
0.000000
 11
24.609920
 21
8.407421
 31
0.000000
  0
LINE
  8
daiko
 10
24.609920
 20
8.407421
 30
0.000000
 11
25.592988
 21
8.172139
 31
0.000000
  0
LINE
  8
daiko
 10
25.592988
 20
8.172139
 30
0.000000
 11
26.574426
 21
7.965171
 31
0.000000
  0
LINE
  8
daiko
 10
26.574426
 20
7.965171
 30
0.000000
 11
27.548330
 21
7.787761
 31
0.000000
  0
LINE
  8
daiko
 10
27.548330
 20
7.787761
 30
0.000000
 11
28.508845
 21
7.640977
 31
0.000000
  0
LINE
  8
daiko
 10
28.508845
 20
7.640977
 30
0.000000
 11
29.450193
 21
7.525699
 31
0.000000
  0
LINE
  8
daiko
 10
29.450193
 20
7.525699
 30
0.000000
 11
30.366712
 21
7.442624
 31
0.000000
  0
LINE
  8
daiko
 10
30.366712
 20
7.442624
 30
0.000000
 11
31.252892
 21
7.392248
 31
0.000000
  0
LINE
  8
daiko
 10
31.252892
 20
7.392248
 30
0.000000
 11
32.103401
 21
7.374877
 31
0.000000
  0
LINE
  8
daiko
 10
32.103401
 20
7.374877
 30
0.000000
 11
32.913126
 21
7.390614
 31
0.000000
  0
LINE
  8
daiko
 10
32.913126
 20
7.390614
 30
0.000000
 11
33.677196
 21
7.439364
 31
0.000000
  0
LINE
  8
daiko
 10
33.677196
 20
7.439364
 30
0.000000
 11
34.391016
 21
7.520834
 31
0.000000
  0
LINE
  8
daiko
 10
34.391016
 20
7.520834
 30
0.000000
 11
35.050294
 21
7.634535
 31
0.000000
  0
LINE
  8
daiko
 10
35.050294
 20
7.634535
 30
0.000000
 11
35.651064
 21
7.779783
 31
0.000000
  0
LINE
  8
daiko
 10
35.651064
 20
7.779783
 30
0.000000
 11
36.189712
 21
7.955703
 31
0.000000
  0
LINE
  8
daiko
 10
36.189712
 20
7.955703
 30
0.000000
 11
36.663001
 21
8.161239
 31
0.000000
  0
LINE
  8
daiko
 10
36.663001
 20
8.161239
 30
0.000000
 11
37.068082
 21
8.395153
 31
0.000000
  0
LINE
  8
daiko
 10
37.068082
 20
8.395153
 30
0.000000
 11
37.402521
 21
8.656040
 31
0.000000
  0
LINE
  8
daiko
 10
37.402521
 20
8.656040
 30
0.000000
 11
37.664305
 21
8.942330
 31
0.000000
  0
LINE
  8
daiko
 10
37.664305
 20
8.942330
 30
0.000000
 11
37.851860
 21
9.252301
 31
0.000000
  0
LINE
  8
daiko
 10
37.851860
 20
9.252301
 30
0.000000
 11
37.964059
 21
9.584089
 31
0.000000
  0
LINE
  8
daiko
 10
37.964059
 20
9.584089
 30
0.000000
 11
38.000226
 21
9.935699
 31
0.000000
  0
LINE
  8
daiko
 10
38.000226
 20
9.935699
 30
0.000000
 11
37.960144
 21
10.305016
 31
0.000000
  0
LINE
  8
daiko
 10
37.960144
 20
10.305016
 30
0.000000
 11
37.844054
 21
10.689818
 31
0.000000
  0
LINE
  8
daiko
 10
37.844054
 20
10.689818
 30
0.000000
 11
37.652654
 21
11.087793
 31
0.000000
  0
LINE
  8
daiko
 10
37.652654
 20
11.087793
 30
0.000000
 11
37.387096
 21
11.496546
 31
0.000000
  0
LINE
  8
daiko
 10
37.387096
 20
11.496546
 30
0.000000
 11
37.048976
 21
11.913619
 31
0.000000
  0
LINE
  8
daiko
 10
37.048976
 20
11.913619
 30
0.000000
 11
36.640327
 21
12.336504
 31
0.000000
  0
LINE
  8
daiko
 10
36.640327
 20
12.336504
 30
0.000000
 11
36.163609
 21
12.762657
 31
0.000000
  0
LINE
  8
daiko
 10
36.163609
 20
12.762657
 30
0.000000
 11
35.621687
 21
13.189515
 31
0.000000
  0
LINE
  8
daiko
 10
35.621687
 20
13.189515
 30
0.000000
 11
35.017820
 21
13.614512
 31
0.000000
  0
LINE
  8
daiko
 10
35.017820
 20
13.614512
 30
0.000000
 11
34.355641
 21
14.035090
 31
0.000000
  0
LINE
  8
daiko
 10
34.355641
 20
14.035090
 30
0.000000
 11
33.639133
 21
14.448722
 31
0.000000
  0
LINE
  8
daiko
 10
33.639133
 20
14.448722
 30
0.000000
 11
32.872603
 21
14.852919
 31
0.000000
  0
LINE
  8
daiko
 10
32.872603
 20
14.852919
 30
0.000000
 11
32.060662
 21
15.245251
 31
0.000000
  0
LINE
  8
daiko
 10
32.060662
 20
15.245251
 30
0.000000
 11
31.208193
 21
15.623357
 31
0.000000
  0
LINE
  8
daiko
 10
31.208193
 20
15.623357
 30
0.000000
 11
30.320324
 21
15.984964
 31
0.000000
  0
LINE
  8
daiko
 10
30.320324
 20
15.984964
 30
0.000000
 11
29.402393
 21
16.327897
 31
0.000000
  0
LINE
  8
daiko
 10
29.402393
 20
16.327897
 30
0.000000
 11
28.459922
 21
16.650094
 31
0.000000
  0
LINE
  8
daiko
 10
28.459922
 20
16.650094
 30
0.000000
 11
27.498578
 21
16.949617
 31
0.000000
  0
LINE
  8
daiko
 10
27.498578
 20
16.949617
 30
0.000000
 11
26.524143
 21
17.224664
 31
0.000000
  0
LINE
  8
daiko
 10
26.524143
 20
17.224664
 30
0.000000
 11
25.542478
 21
17.473582
 31
0.000000
  0
LINE
  8
daiko
 10
25.542478
 20
17.473582
 30
0.000000
 11
24.559486
 21
17.694873
 31
0.000000
  0
LINE
  8
daiko
 10
24.559486
 20
17.694873
 30
0.000000
 11
23.581079
 21
17.887206
 31
0.000000
  0
LINE
  8
daiko
 10
23.581079
 20
17.887206
 30
0.000000
 11
22.613141
 21
18.049426
 31
0.000000
  0
LINE
  8
daiko
 10
22.613141
 20
18.049426
 30
0.000000
 11
21.661494
 21
18.180555
 31
0.000000
  0
LINE
  8
daiko
 10
21.661494
 20
18.180555
 30
0.000000
 11
20.731862
 21
18.279806
 31
0.000000
  0
LINE
  8
daiko
 10
20.731862
 20
18.279806
 30
0.000000
 11
19.829834
 21
18.346582
 31
0.000000
  0
LINE
  8
daiko
 10
19.829834
 20
18.346582
 30
0.000000
 11
18.960836
 21
18.380481
 31
0.000000
  0
LINE
  8
daiko
 10
18.960836
 20
18.380481
 30
0.000000
 11
18.130094
 21
18.381299
 31
0.000000
  0
LINE
  8
daiko
 10
18.130094
 20
18.381299
 30
0.000000
 11
17.342604
 21
18.349031
 31
0.000000
  0
LINE
  8
daiko
 10
17.342604
 20
18.349031
 30
0.000000
 11
16.603103
 21
18.283872
 31
0.000000
  0
LINE
  8
daiko
 10
16.603103
 20
18.283872
 30
0.000000
 11
15.916037
 21
18.186213
 31
0.000000
  0
LINE
  8
daiko
 10
15.916037
 20
18.186213
 30
0.000000
 11
15.285539
 21
18.056641
 31
0.000000
  0
LINE
  8
daiko
 10
15.285539
 20
18.056641
 30
0.000000
 11
14.715401
 21
17.895936
 31
0.000000
  0
LINE
  8
daiko
 10
14.715401
 20
17.895936
 30
0.000000
 11
14.209052
 21
17.705065
 31
0.000000
  0
LINE
  8
daiko
 10
14.209052
 20
17.705065
 30
0.000000
 11
13.769537
 21
17.485174
 31
0.000000
  0
LINE
  8
daiko
 10
13.769537
 20
17.485174
 30
0.000000
 11
13.399498
 21
17.237588
 31
0.000000
  0
LINE
  8
daiko
 10
13.399498
 20
17.237588
 30
0.000000
 11
13.101163
 21
16.963794
 31
0.000000
  0
LINE
  8
daiko
 10
13.101163
 20
16.963794
 30
0.000000
 11
12.876324
 21
16.665439
 31
0.000000
  0
LINE
  8
daiko
 10
12.876324
 20
16.665439
 30
0.000000
 11
12.726334
 21
16.344318
 31
0.000000
  0
LINE
  8
daiko
 10
12.726334
 20
16.344318
 30
0.000000
 11
12.652095
 21
16.002362
 31
0.000000
  0
LINE
  8
daiko
 10
12.652095
 20
16.002362
 30
0.000000
 11
12.654054
 21
15.641627
 31
0.000000
  0
LINE
  8
daiko
 10
12.654054
 20
15.641627
 30
0.000000
 11
12.732199
 21
15.264283
 31
0.000000
  0
LINE
  8
daiko
 10
12.732199
 20
15.264283
 30
0.000000
 11
12.886060
 21
14.872600
 31
0.000000
  0
LINE
  8
daiko
 10
12.886060
 20
14.872600
 30
0.000000
 11
13.114711
 21
14.468932
 31
0.000000
  0
LINE
  8
daiko
 10
13.114711
 20
14.468932
 30
0.000000
 11
13.416777
 21
14.055709
 31
0.000000
  0
LINE
  8
daiko
 10
13.416777
 20
14.055709
 30
0.000000
 11
13.790442
 21
13.635414
 31
0.000000
  0
LINE
  8
daiko
 10
13.790442
 20
13.635414
 30
0.000000
 11
14.233459
 21
13.210576
 31
0.000000
  0
LINE
  8
daiko
 10
14.233459
 20
13.210576
 30
0.000000
 11
14.743163
 21
12.783749
 31
0.000000
  0
LINE
  8
daiko
 10
14.743163
 20
12.783749
 30
0.000000
 11
15.316488
 21
12.357501
 31
0.000000
  0
LINE
  8
daiko
 10
15.316488
 20
12.357501
 30
0.000000
 11
15.949987
 21
11.934395
 31
0.000000
  0
LINE
  8
daiko
 10
15.949987
 20
11.934395
 30
0.000000
 11
16.639850
 21
11.516976
 31
0.000000
  0
LINE
  8
daiko
 10
31.805822
 20
22.823731
 30
0.000000
 11
32.365413
 21
20.670967
 31
0.000000
  0
LINE
  8
daiko
 10
32.365413
 20
20.670967
 30
0.000000
 11
32.778325
 21
19.081826
 31
0.000000
  0
LINE
  8
daiko
 10
6.221222
 20
25.098868
 30
0.000000
 11
6.159874
 21
25.114902
 31
0.000000
  0
LINE
  8
daiko
 10
6.159874
 20
25.114902
 30
0.000000
 11
6.099189
 21
25.107840
 31
0.000000
  0
LINE
  8
daiko
 10
6.099189
 20
25.107840
 30
0.000000
 11
6.043987
 21
25.078244
 31
0.000000
  0
LINE
  8
daiko
 10
6.043987
 20
25.078244
 30
0.000000
 11
5.998650
 21
25.028464
 31
0.000000
  0
LINE
  8
daiko
 10
5.998650
 20
25.028464
 30
0.000000
 11
5.966780
 21
24.962454
 31
0.000000
  0
LINE
  8
daiko
 10
5.966780
 20
24.962454
 30
0.000000
 11
5.950907
 21
24.885455
 31
0.000000
  0
LINE
  8
daiko
 10
5.950907
 20
24.885455
 30
0.000000
 11
5.952291
 21
24.803582
 31
0.000000
  0
LINE
  8
daiko
 10
5.952291
 20
24.803582
 30
0.000000
 11
5.970824
 21
24.723336
 31
0.000000
  0
LINE
  8
daiko
 10
3.129000
 20
24.643408
 30
0.000000
 11
3.105385
 21
24.637848
 31
0.000000
  0
LINE
  8
daiko
 10
3.105385
 20
24.637848
 30
0.000000
 11
3.050182
 21
24.608252
 31
0.000000
  0
LINE
  8
daiko
 10
3.050182
 20
24.608252
 30
0.000000
 11
3.004845
 21
24.558472
 31
0.000000
  0
LINE
  8
daiko
 10
3.004845
 20
24.558472
 30
0.000000
 11
2.972975
 21
24.492462
 31
0.000000
  0
LINE
  8
daiko
 10
2.972975
 20
24.492462
 30
0.000000
 11
2.957102
 21
24.415462
 31
0.000000
  0
LINE
  8
daiko
 10
2.957102
 20
24.415462
 30
0.000000
 11
2.958487
 21
24.333589
 31
0.000000
  0
LINE
  8
daiko
 10
2.958487
 20
24.333589
 30
0.000000
 11
2.977019
 21
24.253344
 31
0.000000
  0
LINE
  8
daiko
 10
31.269575
 20
22.994125
 30
0.000000
 11
31.209041
 21
23.298335
 31
0.000000
  0
LINE
  8
daiko
 10
31.209041
 20
23.298335
 30
0.000000
 11
31.206686
 21
23.310170
 31
0.000000
  0
LINE
  8
daiko
 10
31.206686
 20
23.310170
 30
0.000000
 11
31.146672
 21
23.611730
 31
0.000000
  0
LINE
  8
daiko
 10
19.272526
 20
24.658454
 30
0.000000
 11
18.727039
 21
24.311539
 31
0.000000
  0
LINE
  8
daiko
 10
18.727039
 20
24.311539
 30
0.000000
 11
18.675096
 21
24.274748
 31
0.000000
  0
LINE
  8
daiko
 10
32.127563
 20
23.981424
 30
0.000000
 11
32.066011
 21
24.032282
 31
0.000000
  0
LINE
  8
daiko
 10
32.066011
 20
24.032282
 30
0.000000
 11
31.565486
 21
24.401096
 31
0.000000
  0
LINE
  8
daiko
 10
31.565486
 20
24.401096
 30
0.000000
 11
31.005637
 21
24.740301
 31
0.000000
  0
LINE
  8
daiko
 10
31.005637
 20
24.740301
 30
0.000000
 11
30.391692
 21
25.046729
 31
0.000000
  0
LINE
  8
daiko
 10
30.391692
 20
25.046729
 30
0.000000
 11
29.729382
 21
25.317520
 31
0.000000
  0
LINE
  8
daiko
 10
29.729382
 20
25.317520
 30
0.000000
 11
29.024893
 21
25.550146
 31
0.000000
  0
LINE
  8
daiko
 10
29.024893
 20
25.550146
 30
0.000000
 11
28.284800
 21
25.742433
 31
0.000000
  0
LINE
  8
daiko
 10
28.284800
 20
25.742433
 30
0.000000
 11
27.516015
 21
25.892589
 31
0.000000
  0
LINE
  8
daiko
 10
27.516015
 20
25.892589
 30
0.000000
 11
26.725715
 21
25.999209
 31
0.000000
  0
LINE
  8
daiko
 10
26.725715
 20
25.999209
 30
0.000000
 11
25.921280
 21
26.061299
 31
0.000000
  0
LINE
  8
daiko
 10
25.921280
 20
26.061299
 30
0.000000
 11
25.110219
 21
26.078278
 31
0.000000
  0
LINE
  8
daiko
 10
25.110219
 20
26.078278
 30
0.000000
 11
24.300105
 21
26.049990
 31
0.000000
  0
LINE
  8
daiko
 10
24.300105
 20
26.049990
 30
0.000000
 11
23.498504
 21
25.976697
 31
0.000000
  0
LINE
  8
daiko
 10
23.498504
 20
25.976697
 30
0.000000
 11
22.712897
 21
25.859083
 31
0.000000
  0
LINE
  8
daiko
 10
22.712897
 20
25.859083
 30
0.000000
 11
21.950622
 21
25.698248
 31
0.000000
  0
LINE
  8
daiko
 10
21.950622
 20
25.698248
 30
0.000000
 11
21.218794
 21
25.495692
 31
0.000000
  0
LINE
  8
daiko
 10
21.218794
 20
25.495692
 30
0.000000
 11
20.524247
 21
25.253307
 31
0.000000
  0
LINE
  8
daiko
 10
20.524247
 20
25.253307
 30
0.000000
 11
19.873466
 21
24.973357
 31
0.000000
  0
LINE
  8
daiko
 10
19.873466
 20
24.973357
 30
0.000000
 11
19.272526
 21
24.658454
 31
0.000000
  0
LINE
  8
daiko
 10
5.585091
 20
20.261140
 30
0.000000
 11
5.571451
 21
20.255383
 31
0.000000
  0
LINE
  8
daiko
 10
5.571451
 20
20.255383
 30
0.000000
 11
5.561396
 21
20.248080
 31
0.000000
  0
LINE
  8
daiko
 10
5.561396
 20
20.248080
 30
0.000000
 11
5.555312
 21
20.239511
 31
0.000000
  0
LINE
  8
daiko
 10
5.555312
 20
20.239511
 30
0.000000
 11
5.553434
 21
20.230007
 31
0.000000
  0
LINE
  8
daiko
 10
5.553434
 20
20.230007
 30
0.000000
 11
5.555833
 21
20.219933
 31
0.000000
  0
LINE
  8
daiko
 10
5.555833
 20
20.219933
 30
0.000000
 11
5.562418
 21
20.209675
 31
0.000000
  0
LINE
  8
daiko
 10
5.562418
 20
20.209675
 30
0.000000
 11
5.572934
 21
20.199627
 31
0.000000
  0
LINE
  8
daiko
 10
5.572934
 20
20.199627
 30
0.000000
 11
5.586979
 21
20.190177
 31
0.000000
  0
LINE
  8
daiko
 10
14.659068
 20
23.856216
 30
0.000000
 11
14.666545
 21
23.932134
 31
0.000000
  0
LINE
  8
daiko
 10
14.666545
 20
23.932134
 30
0.000000
 11
14.661780
 21
24.001295
 31
0.000000
  0
LINE
  8
daiko
 10
14.661780
 20
24.001295
 30
0.000000
 11
14.644959
 21
24.061040
 31
0.000000
  0
LINE
  8
daiko
 10
14.644959
 20
24.061040
 30
0.000000
 11
14.616726
 21
24.109073
 31
0.000000
  0
LINE
  8
daiko
 10
14.616726
 20
24.109073
 30
0.000000
 11
14.578167
 21
24.143549
 31
0.000000
  0
LINE
  8
daiko
 10
14.578167
 20
24.143549
 30
0.000000
 11
14.530764
 21
24.163142
 31
0.000000
  0
LINE
  8
daiko
 10
14.530764
 20
24.163142
 30
0.000000
 11
14.476339
 21
24.167100
 31
0.000000
  0
LINE
  8
daiko
 10
14.476339
 20
24.167100
 30
0.000000
 11
14.416983
 21
24.155271
 31
0.000000
  0
LINE
  8
daiko
 10
1.522470
 20
19.106623
 30
0.000000
 11
1.519479
 21
19.076256
 31
0.000000
  0
LINE
  8
daiko
 10
1.519479
 20
19.076256
 30
0.000000
 11
1.521385
 21
19.048591
 31
0.000000
  0
LINE
  8
daiko
 10
1.521385
 20
19.048591
 30
0.000000
 11
1.528114
 21
19.024693
 31
0.000000
  0
LINE
  8
daiko
 10
1.528114
 20
19.024693
 30
0.000000
 11
1.539407
 21
19.005480
 31
0.000000
  0
LINE
  8
daiko
 10
1.539407
 20
19.005480
 30
0.000000
 11
1.554830
 21
18.991690
 31
0.000000
  0
LINE
  8
daiko
 10
1.554830
 20
18.991690
 30
0.000000
 11
1.573791
 21
18.983852
 31
0.000000
  0
LINE
  8
daiko
 10
1.573791
 20
18.983852
 30
0.000000
 11
1.595562
 21
18.982269
 31
0.000000
  0
LINE
  8
daiko
 10
1.595562
 20
18.982269
 30
0.000000
 11
1.619304
 21
18.987001
 31
0.000000
  0
LINE
  8
daiko
 10
15.764811
 20
23.498500
 30
0.000000
 11
15.766145
 21
23.476710
 31
0.000000
  0
LINE
  8
daiko
 10
15.766145
 20
23.476710
 30
0.000000
 11
15.770456
 21
23.457142
 31
0.000000
  0
LINE
  8
daiko
 10
15.770456
 20
23.457142
 30
0.000000
 11
15.777643
 21
23.440257
 31
0.000000
  0
LINE
  8
daiko
 10
15.777643
 20
23.440257
 30
0.000000
 11
15.787535
 21
23.426453
 31
0.000000
  0
LINE
  8
daiko
 10
15.787535
 20
23.426453
 30
0.000000
 11
15.799900
 21
23.416057
 31
0.000000
  0
LINE
  8
daiko
 10
15.799900
 20
23.416057
 30
0.000000
 11
15.814444
 21
23.409314
 31
0.000000
  0
LINE
  8
daiko
 10
15.814444
 20
23.409314
 30
0.000000
 11
15.830826
 21
23.406383
 31
0.000000
  0
LINE
  8
daiko
 10
15.830826
 20
23.406383
 30
0.000000
 11
15.848658
 21
23.407334
 31
0.000000
  0
LINE
  8
daiko
 10
33.228919
 20
23.827381
 30
0.000000
 11
33.260936
 21
23.813011
 31
0.000000
  0
LINE
  8
daiko
 10
33.260936
 20
23.813011
 30
0.000000
 11
33.368137
 21
23.747012
 31
0.000000
  0
LINE
  8
daiko
 10
32.603175
 20
24.122866
 30
0.000000
 11
32.828830
 21
24.153504
 31
0.000000
  0
LINE
  8
daiko
 10
32.828830
 20
24.153504
 30
0.000000
 11
33.058419
 21
24.135016
 31
0.000000
  0
LINE
  8
daiko
 10
33.058419
 20
24.135016
 30
0.000000
 11
33.260936
 21
24.069897
 31
0.000000
  0
LINE
  8
daiko
 10
33.260936
 20
24.069897
 30
0.000000
 11
33.409029
 21
23.966943
 31
0.000000
  0
LINE
  8
daiko
 10
33.409029
 20
23.966943
 30
0.000000
 11
33.482697
 21
23.840058
 31
0.000000
  0
LINE
  8
daiko
 10
33.482697
 20
23.840058
 30
0.000000
 11
33.488746
 21
23.789749
 31
0.000000
  0
LINE
  8
daiko
 10
15.947807
 20
30.955093
 30
0.000000
 11
15.800271
 21
30.896817
 31
0.000000
  0
LINE
  8
daiko
 10
15.800271
 20
30.896817
 30
0.000000
 11
15.672772
 21
30.962854
 31
0.000000
  0
LINE
  8
daiko
 10
1.646887
 20
19.146596
 30
0.000000
 11
10.130960
 21
21.872384
 31
0.000000
  0
ENDBLK
  0
ENDSEC
  0
SECTION
  2
ENTITIES
  0
INSERT
  8
daiko
  2
TOP
 10
-0.003511
 20
0.118357
 30
0.000000
  0
TEXT
  8
daiko
 10
0.000000
 20
-11.000000
 30
0.000000
 40
3.000000
  1
DDL-4817FW
  7
BIGFONT
  0
TEXT
  8
daiko
 10
0.000000
 20
-15.000000
 30
0.000000
 40
3.000000
  1
LEDﾀﾞｳﾝﾗｲﾄ
  7
BIGFONT
  0
TEXT
  8
daiko
 10
0.000000
 20
-19.000000
 30
0.000000
 40
3.000000
  1
LDE5.8W
  7
BIGFONT
  0
TEXT
  8
daiko
 10
0.000000
 20
-23.000000
 30
0.000000
 40
3.000000
  1
消費電力 5.8W
  7
BIGFONT
  0
TEXT
  8
daiko
 10
0.000000
 20
-27.000000
 30
0.000000
 40
3.000000
  1
光束値 400lm
  7
BIGFONT
  0
TEXT
  8
daiko
 10
0.000000
 20
-31.000000
 30
0.000000
 40
3.000000
  1
色温度 5000K～2700K Ra83
  7
BIGFONT
  0
TEXT
  8
daiko
 10
0.000000
 20
-35.000000
 30
0.000000
 40
3.000000
  1
施工寸法 φ125 H=80mm
  7
BIGFONT
  0
TEXT
  8
daiko
 10
0.000000
 20
-39.000000
 30
0.000000
 40
3.000000
  1
枠／白塗装
  7
BIGFONT
  0
ENDSEC
  0
EOF
