  0
SECTION
  2
HEADER
  9
$EXTMIN
 10
0.000000
 20
-40.000000
 30
0.000000
  9
$EXTMAX
 10
49.822937
 20
19.914165
 30
0.000000
  0
ENDSEC
  0
SECTION
  2
TABLES
  0
TABLE
  2
LTYPE
 70
    10
  0
LTYPE
  2
BYBLOCK
 70
    64
  3

 72
    65
 73
     0
 40
0.000000
  0
LTYPE
  2
BYLAYER
 70
    64
  3

 72
    65
 73
     0
 40
0.000000
  0
LTYPE
  2
CENTER_DASH_DASH
 70
    64
  3
Center_Dash_Dash
 72
    65
 73
     6
 40
22.000000
 49
12.000000
 49
-3.000000
 49
0.500000
 49
-3.000000
 49
0.500000
 49
-3.000000
  0
LTYPE
  2
CONTINUOUS
 70
    64
  3
Solid line
 72
    65
 73
     0
 40
0.000000
  0
LTYPE
  2
DASHED
 70
    64
  3
Dashed
 72
    65
 73
     2
 40
15.000000
 49
12.000000
 49
-3.000000
  0
LTYPE
  2
DASH_CENTER
 70
    64
  3
Dash_Center
 72
    65
 73
     4
 40
36.000000
 49
24.000000
 49
-3.000000
 49
6.000000
 49
-3.000000
  0
LTYPE
  2
DOTTED
 70
    64
  3
Dotted
 72
    65
 73
     2
 40
3.500000
 49
0.500000
 49
-3.000000
  0
LTYPE
  2
DOT_CENTER
 70
    64
  3
Dot_Center
 72
    65
 73
     4
 40
2.000000
 49
1.250000
 49
-0.250000
 49
0.250000
 49
-0.250000
  0
LTYPE
  2
LONG_DASHED
 70
    64
  3
Long_Dashed
 72
    65
 73
     2
 40
2.000000
 49
1.500000
 49
-0.500000
  0
LTYPE
  2
PHANTOM
 70
    64
  3
Phantom
 72
    65
 73
     6
 40
2.500000
 49
1.250000
 49
-0.250000
 49
0.250000
 49
-0.250000
 49
0.250000
 49
-0.250000
  0
ENDTAB
  0
TABLE
  2
STYLE
 70
     3
  0
STYLE
  2
BIGFONT
 70
     0
 40
1.000000
 41
1.000000
 50
0.000000
 71
     0
 42
0.000000
  3
txt
  4
bigfont
  0
STYLE
  2
CONVERTER_1
 70
     0
 40
0.000000
 41
0.950000
 50
0.000000
 71
     0
 42
0.000000
  3
simplex.shx
  4

  0
STYLE
  2
STANDARD
 70
     0
 40
0.000000
 41
1.000000
 50
0.000000
 71
     0
 42
0.000000
  3
txt
  4

  0
ENDTAB
  0
TABLE
  2
LAYER
 70
     1
  0
LAYER
  2
daiko
 70
     0
 62
     7
  6
CONTINUOUS
  0
ENDTAB
  0
ENDSEC
  0
SECTION
  2
BLOCKS
  0
BLOCK
  8
daiko
  2
TOP
 70
     0
 10
0.000000
 20
0.000000
 30
0.000000
  3
TOP
  1

  0
ARC
  8
daiko
 10
23.146619
 20
10.943863
 30
0.000000
 40
0.410312
 50
48.369714
 51
107.898081
  0
ARC
  8
daiko
 10
23.146619
 20
10.845878
 30
0.000000
 40
0.410312
 50
48.369714
 51
107.898081
  0
ARC
  8
daiko
 10
21.980620
 20
12.198545
 30
0.000000
 40
0.078622
 50
8.865815
 51
112.953214
  0
ARC
  8
daiko
 10
22.137892
 20
11.079383
 30
0.000000
 40
0.078619
 50
188.863424
 51
292.955605
  0
ARC
  8
daiko
 10
26.170816
 20
6.097883
 30
0.000000
 40
0.087363
 50
223.057032
 51
289.747203
  0
ARC
  8
daiko
 10
1.064472
 20
5.478486
 30
0.000000
 40
0.147343
 50
284.555167
 51
350.624382
  0
ARC
  8
daiko
 10
1.357130
 20
6.574899
 30
0.000000
 40
0.147344
 50
104.557022
 51
170.624135
  0
ARC
  8
daiko
 10
27.111760
 20
6.498255
 30
0.000000
 40
0.113766
 50
0.852184
 51
41.164678
  0
ARC
  8
daiko
 10
5.096251
 20
0.487155
 30
0.000000
 40
0.147343
 50
284.555167
 51
350.624382
  0
ARC
  8
daiko
 10
4.155216
 20
0.505651
 30
0.000000
 40
0.410311
 50
228.369610
 51
287.898184
  0
ARC
  8
daiko
 10
0.269768
 20
5.008133
 30
0.000000
 40
0.197420
 50
95.881816
 51
168.481788
  0
ARC
  8
daiko
 10
12.583818
 20
3.649992
 30
0.000000
 40
0.289309
 50
0.569128
 51
34.446391
  0
ARC
  8
daiko
 10
22.185887
 20
7.109261
 30
0.000000
 40
17.924408
 50
16.088000
 51
20.987964
  0
ARC
  8
daiko
 10
38.731185
 20
15.975126
 30
0.000000
 40
1.329554
 50
200.882770
 51
235.361538
  0
ARC
  8
daiko
 10
38.696115
 20
15.991163
 30
0.000000
 40
1.281437
 50
200.955020
 51
235.180382
  0
ARC
  8
daiko
 10
22.039602
 20
7.069772
 30
0.000000
 40
18.096639
 50
16.071387
 51
20.977133
  0
ARC
  8
daiko
 10
33.567098
 20
19.281780
 30
0.000000
 40
0.235128
 50
185.213569
 51
287.186424
  0
ARC
  8
daiko
 10
35.040126
 20
19.780094
 30
0.000000
 40
0.333295
 50
285.997537
 51
5.036202
  0
ARC
  8
daiko
 10
35.064676
 20
19.761966
 30
0.000000
 40
0.333295
 50
285.997537
 51
5.036202
  0
ARC
  8
daiko
 10
33.591894
 20
19.270252
 30
0.000000
 40
0.241371
 50
234.339032
 51
286.667578
  0
ARC
  8
daiko
 10
36.691993
 20
15.426188
 30
0.000000
 40
1.329554
 50
200.882770
 51
235.361538
  0
ARC
  8
daiko
 10
20.254451
 20
6.596997
 30
0.000000
 40
17.810664
 50
16.242309
 51
21.001974
  0
ARC
  8
daiko
 10
48.289670
 20
3.893288
 30
0.000000
 40
1.144859
 50
201.338281
 51
238.312043
  0
ARC
  8
daiko
 10
49.572763
 20
2.044504
 30
0.000000
 40
0.258169
 50
351.771353
 51
47.000391
  0
ARC
  8
daiko
 10
49.661773
 20
2.070738
 30
0.000000
 40
0.143428
 50
351.771424
 51
47.000390
  0
ARC
  8
daiko
 10
48.327504
 20
3.879494
 30
0.000000
 40
1.196500
 50
201.234858
 51
238.298258
  0
ARC
  8
daiko
 10
46.269204
 20
3.307137
 30
0.000000
 40
1.166541
 50
202.419149
 51
238.492255
  0
ARC
  8
daiko
 10
49.424835
 20
2.060510
 30
0.000000
 40
0.412471
 50
282.192511
 51
341.320382
  0
ARC
  8
daiko
 10
49.400286
 20
2.103167
 30
0.000000
 40
0.412471
 50
282.192511
 51
341.320382
  0
ARC
  8
daiko
 10
47.622581
 20
1.521801
 30
0.000000
 40
0.143428
 50
351.771424
 51
47.000390
  0
ARC
  8
daiko
 10
47.935220
 20
1.434238
 30
0.000000
 40
0.197015
 50
221.762449
 51
294.378335
  0
ARC
  8
daiko
 10
46.677231
 20
7.363894
 30
0.000000
 40
3.222834
 50
1.280938
 51
40.735422
  0
ARC
  8
daiko
 10
38.716173
 20
11.428845
 30
0.000000
 40
2.616183
 50
137.137915
 51
153.118776
  0
ARC
  8
daiko
 10
15.002427
 20
49.580639
 30
0.000000
 40
39.341226
 50
282.456033
 51
293.892718
  0
ARC
  8
daiko
 10
15.252028
 20
48.339531
 30
0.000000
 40
38.546468
 50
282.839659
 51
294.509080
  0
ARC
  8
daiko
 10
110.010559
 20
-136.242190
 30
0.000000
 40
169.436090
 50
116.243728
 51
117.819577
  0
ARC
  8
daiko
 10
64.748773
 20
-49.557421
 30
0.000000
 40
71.200306
 50
114.429468
 51
118.072669
  0
ARC
  8
daiko
 10
45.677925
 20
16.830693
 30
0.000000
 40
0.261545
 50
219.986280
 51
282.258828
  0
ARC
  8
daiko
 10
46.882238
 20
12.600634
 30
0.000000
 40
4.139126
 50
103.200936
 51
106.056913
  0
ARC
  8
daiko
 10
45.969543
 20
16.467203
 30
0.000000
 40
0.166394
 50
42.533788
 51
101.278647
  0
ARC
  8
daiko
 10
47.940243
 20
14.829860
 30
0.000000
 40
0.060379
 50
289.599444
 51
39.826160
  0
ARC
  8
daiko
 10
46.943631
 20
16.550579
 30
0.000000
 40
0.180363
 50
53.563923
 51
106.135889
  0
ARC
  8
daiko
 10
46.950484
 20
14.532697
 30
0.000000
 40
1.150910
 50
66.838807
 51
94.684711
  0
ARC
  8
daiko
 10
46.967052
 20
15.798704
 30
0.000000
 40
0.208694
 50
40.194444
 51
106.407889
  0
ARC
  8
daiko
 10
46.707908
 20
15.910349
 30
0.000000
 40
0.029324
 50
114.980008
 51
220.612807
  0
ARC
  8
daiko
 10
46.723260
 20
15.910468
 30
0.000000
 40
0.038334
 50
92.015730
 51
136.346266
  0
ARC
  8
daiko
 10
46.215755
 20
15.929555
 30
0.000000
 40
0.226472
 50
235.075537
 51
285.572525
  0
ARC
  8
daiko
 10
35.341203
 20
13.490663
 30
0.000000
 40
0.119656
 50
99.673956
 51
166.712210
  0
ARC
  8
daiko
 10
35.176175
 20
13.083847
 30
0.000000
 40
0.043090
 50
161.029291
 51
229.849860
  0
ARC
  8
daiko
 10
35.448728
 20
12.739085
 30
0.000000
 40
0.055740
 50
100.346505
 51
162.979216
  0
ARC
  8
daiko
 10
52.069358
 20
22.316750
 30
0.000000
 40
12.552598
 50
243.805418
 51
246.401683
  0
ARC
  8
daiko
 10
42.148446
 20
1.257461
 30
0.000000
 40
10.955444
 50
62.730520
 51
65.679050
  0
ARC
  8
daiko
 10
40.741496
 20
14.278014
 30
0.000000
 40
4.090689
 50
135.125673
 51
151.064501
  0
ARC
  8
daiko
 10
40.861606
 20
14.064287
 30
0.000000
 40
4.327115
 50
121.543774
 51
134.242269
  0
ARC
  8
daiko
 10
41.598916
 20
11.867586
 30
0.000000
 40
6.605524
 50
101.966796
 51
117.021365
  0
ARC
  8
daiko
 10
41.568565
 20
11.143175
 30
0.000000
 40
7.310112
 50
81.002352
 51
100.556670
  0
ARC
  8
daiko
 10
41.937747
 20
12.933549
 30
0.000000
 40
5.484685
 50
64.359175
 51
81.886528
  0
ARC
  8
daiko
 10
43.108232
 20
15.172234
 30
0.000000
 40
2.961216
 50
46.882509
 51
66.032663
  0
ARC
  8
daiko
 10
42.990654
 20
14.998214
 30
0.000000
 40
3.168780
 50
29.909791
 51
47.481299
  0
ARC
  8
daiko
 10
42.426988
 20
11.844803
 30
0.000000
 40
5.617946
 50
55.588493
 51
72.242552
  0
ARC
  8
daiko
 10
41.629751
 20
9.378615
 30
0.000000
 40
8.209786
 50
72.193036
 51
89.656037
  0
ARC
  8
daiko
 10
41.531115
 20
9.256367
 30
0.000000
 40
8.333199
 50
88.982895
 51
103.682982
  0
ARC
  8
daiko
 10
40.700300
 20
12.032274
 30
0.000000
 40
5.441629
 50
102.097122
 51
130.145349
  0
ARC
  8
daiko
 10
41.434357
 20
9.638229
 30
0.000000
 40
7.541287
 50
90.425145
 51
123.196716
  0
ARC
  8
daiko
 10
41.657897
 20
8.940683
 30
0.000000
 40
8.243365
 50
73.113221
 51
91.943028
  0
ARC
  8
daiko
 10
42.688495
 20
11.822747
 30
0.000000
 40
5.188344
 50
49.091463
 51
74.758587
  0
ARC
  8
daiko
 10
53.025940
 20
3.693500
 30
0.000000
 40
18.882080
 50
151.815526
 51
158.166930
  0
LINE
  8
daiko
 10
22.075204
 20
11.029570
 30
0.000000
 11
26.106982
 21
6.038239
 31
0.000000
  0
LINE
  8
daiko
 10
22.824300
 20
11.281497
 30
0.000000
 11
22.043310
 21
12.248361
 31
0.000000
  0
LINE
  8
daiko
 10
6.888239
 20
7.591192
 30
0.000000
 11
6.938953
 21
7.528408
 31
0.000000
  0
LINE
  8
daiko
 10
8.860856
 20
8.697288
 30
0.000000
 11
6.821663
 21
8.148351
 31
0.000000
  0
LINE
  8
daiko
 10
27.225514
 20
6.401963
 30
0.000000
 11
27.225514
 21
6.499947
 31
0.000000
  0
LINE
  8
daiko
 10
0.076324
 20
5.047554
 30
0.000000
 11
0.076324
 21
4.949569
 31
0.000000
  0
LINE
  8
daiko
 10
10.869303
 20
2.662645
 30
0.000000
 11
10.920017
 21
2.599860
 31
0.000000
  0
LINE
  8
daiko
 10
35.379585
 20
20.009505
 30
0.000000
 11
33.340392
 21
19.460567
 31
0.000000
  0
LINE
  8
daiko
 10
33.426628
 20
19.092272
 30
0.000000
 11
33.451178
 21
19.074144
 31
0.000000
  0
LINE
  8
daiko
 10
39.811984
 20
15.394093
 30
0.000000
 11
38.045182
 21
14.918481
 31
0.000000
  0
LINE
  8
daiko
 10
47.763715
 20
1.345674
 30
0.000000
 11
47.788265
 21
1.303017
 31
0.000000
  0
LINE
  8
daiko
 10
36.237957
 20
13.855431
 30
0.000000
 11
35.321096
 21
13.608617
 31
0.000000
  0
LINE
  8
daiko
 10
35.224751
 20
13.518165
 30
0.000000
 11
35.135425
 21
13.097855
 31
0.000000
  0
LINE
  8
daiko
 10
33.249261
 20
7.435940
 30
0.000000
 11
33.249261
 21
7.190978
 31
0.000000
  0
LINE
  8
daiko
 10
49.899261
 20
7.190978
 30
0.000000
 11
49.899261
 21
7.435940
 31
0.000000
  0
LINE
  8
daiko
 10
39.874542
 20
15.431312
 30
0.000000
 11
39.795529
 21
12.666570
 31
0.000000
  0
LINE
  8
daiko
 10
36.249475
 20
14.146316
 30
0.000000
 11
36.187085
 21
12.201169
 31
0.000000
  0
LINE
  8
daiko
 10
35.395429
 20
12.755402
 30
0.000000
 11
35.334324
 21
10.617252
 31
0.000000
  0
LINE
  8
daiko
 10
3.050359
 20
7.709353
 30
0.000000
 11
3.050359
 21
7.183288
 31
0.000000
  0
LINE
  8
daiko
 10
3.050359
 20
7.709353
 30
0.000000
 11
5.700979
 21
8.422883
 31
0.000000
  0
LINE
  8
daiko
 10
27.197406
 20
6.475154
 30
0.000000
 11
23.419198
 21
11.152565
 31
0.000000
  0
LINE
  8
daiko
 10
27.052298
 20
6.245002
 30
0.000000
 11
26.200333
 21
6.015658
 31
0.000000
  0
LINE
  8
daiko
 10
23.020520
 20
11.236334
 30
0.000000
 11
22.168555
 21
11.006990
 31
0.000000
  0
LINE
  8
daiko
 10
22.168555
 20
11.104975
 30
0.000000
 11
22.058303
 21
12.210662
 31
0.000000
  0
LINE
  8
daiko
 10
22.060211
 20
11.067270
 30
0.000000
 11
21.949960
 21
12.172957
 31
0.000000
  0
LINE
  8
daiko
 10
21.949960
 20
12.172957
 30
0.000000
 11
9.113227
 21
8.717389
 31
0.000000
  0
LINE
  8
daiko
 10
21.949960
 20
12.270942
 30
0.000000
 11
9.113227
 21
8.815375
 31
0.000000
  0
LINE
  8
daiko
 10
23.020520
 20
11.334318
 30
0.000000
 11
22.168555
 21
11.104975
 31
0.000000
  0
LINE
  8
daiko
 10
27.197406
 20
6.573139
 30
0.000000
 11
23.419198
 21
11.250550
 31
0.000000
  0
LINE
  8
daiko
 10
25.325993
 20
7.005102
 30
0.000000
 11
13.145006
 21
3.726058
 31
0.000000
  0
LINE
  8
daiko
 10
12.875935
 20
3.854270
 30
0.000000
 11
13.145006
 21
3.726058
 31
0.000000
  0
LINE
  8
daiko
 10
12.739988
 20
3.817674
 30
0.000000
 11
12.875935
 21
3.854270
 31
0.000000
  0
LINE
  8
daiko
 10
12.822399
 20
3.715650
 30
0.000000
 11
12.739988
 21
3.817674
 31
0.000000
  0
LINE
  8
daiko
 10
10.783206
 20
3.166712
 30
0.000000
 11
12.822399
 21
3.715650
 31
0.000000
  0
LINE
  8
daiko
 10
10.700795
 20
3.268736
 30
0.000000
 11
10.783206
 21
3.166712
 31
0.000000
  0
LINE
  8
daiko
 10
10.564849
 20
3.232140
 30
0.000000
 11
10.700795
 21
3.268736
 31
0.000000
  0
LINE
  8
daiko
 10
10.562027
 20
3.030736
 30
0.000000
 11
10.564849
 21
3.232140
 31
0.000000
  0
LINE
  8
daiko
 10
10.562027
 20
3.030736
 30
0.000000
 11
5.351875
 21
1.628196
 31
0.000000
  0
LINE
  8
daiko
 10
5.351875
 20
1.628196
 30
0.000000
 11
1.320096
 21
6.619528
 31
0.000000
  0
LINE
  8
daiko
 10
6.530249
 20
8.022068
 30
0.000000
 11
1.320096
 21
6.619528
 31
0.000000
  0
LINE
  8
daiko
 10
6.530249
 20
8.022068
 30
0.000000
 11
6.799320
 21
7.893856
 31
0.000000
  0
LINE
  8
daiko
 10
8.892049
 20
8.581413
 30
0.000000
 11
8.974459
 21
8.479389
 31
0.000000
  0
LINE
  8
daiko
 10
8.974459
 20
8.479389
 30
0.000000
 11
9.110406
 21
8.515985
 31
0.000000
  0
LINE
  8
daiko
 10
8.841334
 20
8.278729
 30
0.000000
 11
8.892049
 21
8.215944
 31
0.000000
  0
LINE
  8
daiko
 10
6.802142
 20
7.729791
 30
0.000000
 11
6.802142
 21
8.095260
 31
0.000000
  0
LINE
  8
daiko
 10
8.841334
 20
8.644198
 30
0.000000
 11
8.841334
 21
8.278729
 31
0.000000
  0
LINE
  8
daiko
 10
8.974459
 20
8.479389
 30
0.000000
 11
8.974459
 21
8.577374
 31
0.000000
  0
LINE
  8
daiko
 10
8.892049
 20
8.581413
 30
0.000000
 11
8.892049
 21
8.215944
 31
0.000000
  0
LINE
  8
daiko
 10
8.892049
 20
8.679398
 30
0.000000
 11
8.974459
 21
8.577374
 31
0.000000
  0
LINE
  8
daiko
 10
1.320096
 20
6.619528
 30
0.000000
 11
1.209847
 21
5.454483
 31
0.000000
  0
LINE
  8
daiko
 10
1.101501
 20
5.335872
 30
0.000000
 11
0.249537
 21
5.106529
 31
0.000000
  0
LINE
  8
daiko
 10
1.101501
 20
5.433857
 30
0.000000
 11
0.249537
 21
5.204514
 31
0.000000
  0
LINE
  8
daiko
 10
1.211755
 20
6.598903
 30
0.000000
 11
1.101501
 21
5.433857
 31
0.000000
  0
LINE
  8
daiko
 10
6.530249
 20
8.022068
 30
0.000000
 11
6.530249
 21
8.120053
 31
0.000000
  0
LINE
  8
daiko
 10
6.530249
 20
8.120053
 30
0.000000
 11
1.320096
 21
6.717513
 31
0.000000
  0
LINE
  8
daiko
 10
8.974459
 20
8.577374
 30
0.000000
 11
9.110406
 21
8.613970
 31
0.000000
  0
LINE
  8
daiko
 10
6.799320
 20
7.893856
 30
0.000000
 11
6.799320
 21
7.991841
 31
0.000000
  0
LINE
  8
daiko
 10
6.530249
 20
8.120053
 30
0.000000
 11
6.799320
 21
7.991841
 31
0.000000
  0
LINE
  8
daiko
 10
5.133280
 20
0.344541
 30
0.000000
 11
1.101501
 21
5.335872
 31
0.000000
  0
LINE
  8
daiko
 10
5.351875
 20
1.628196
 30
0.000000
 11
5.241625
 21
0.463152
 31
0.000000
  0
LINE
  8
daiko
 10
3.882637
 20
0.198966
 30
0.000000
 11
0.104430
 21
4.876377
 31
0.000000
  0
LINE
  8
daiko
 10
5.133280
 20
0.344541
 30
0.000000
 11
4.281316
 21
0.115197
 31
0.000000
  0
LINE
  8
daiko
 10
10.783206
 20
2.801243
 30
0.000000
 11
10.783206
 21
3.166712
 31
0.000000
  0
LINE
  8
daiko
 10
12.822399
 20
3.715650
 30
0.000000
 11
12.822399
 21
3.350181
 31
0.000000
  0
LINE
  8
daiko
 10
12.873113
 20
3.287397
 30
0.000000
 11
12.822399
 21
3.350181
 31
0.000000
  0
LINE
  8
daiko
 10
12.873113
 20
3.652866
 30
0.000000
 11
12.873113
 21
3.287397
 31
0.000000
  0
LINE
  8
daiko
 10
12.822399
 20
3.813635
 30
0.000000
 11
12.805000
 21
3.835175
 31
0.000000
  0
LINE
  8
daiko
 10
5.700978
 20
12.293890
 30
0.000000
 11
5.700978
 21
7.896818
 31
0.000000
  0
LINE
  8
daiko
 10
5.700978
 20
12.293890
 30
0.000000
 11
19.037298
 21
15.883943
 31
0.000000
  0
LINE
  8
daiko
 10
19.037298
 20
15.883943
 30
0.000000
 11
19.037298
 21
11.486872
 31
0.000000
  0
LINE
  8
daiko
 10
5.700978
 20
7.896818
 30
0.000000
 11
19.037298
 21
11.486872
 31
0.000000
  0
LINE
  8
daiko
 10
19.037298
 20
15.883943
 30
0.000000
 11
21.954756
 21
12.272137
 31
0.000000
  0
LINE
  8
daiko
 10
6.632754
 20
8.071211
 30
0.000000
 11
6.803667
 21
8.117219
 31
0.000000
  0
LINE
  8
daiko
 10
8.892049
 20
8.679398
 30
0.000000
 11
9.112153
 21
8.738649
 31
0.000000
  0
LINE
  8
daiko
 10
39.870311
 20
15.283255
 30
0.000000
 11
39.827580
 21
15.336156
 31
0.000000
  0
LINE
  8
daiko
 10
39.827580
 20
15.336156
 30
0.000000
 11
39.653935
 21
12.112255
 31
0.000000
  0
LINE
  8
daiko
 10
37.488968
 20
15.501197
 30
0.000000
 11
35.428124
 21
19.917954
 31
0.000000
  0
LINE
  8
daiko
 10
35.383990
 20
19.901806
 30
0.000000
 11
35.396685
 21
19.791224
 31
0.000000
  0
LINE
  8
daiko
 10
35.372135
 20
19.809352
 30
0.000000
 11
35.359440
 21
19.919934
 31
0.000000
  0
LINE
  8
daiko
 10
35.438881
 20
19.949002
 30
0.000000
 11
37.499431
 21
15.532876
 31
0.000000
  0
LINE
  8
daiko
 10
39.626555
 20
12.108480
 30
0.000000
 11
39.802343
 21
15.372156
 31
0.000000
  0
LINE
  8
daiko
 10
39.827580
 20
15.385148
 30
0.000000
 11
39.871663
 21
15.330573
 31
0.000000
  0
LINE
  8
daiko
 10
35.449776
 20
14.952259
 30
0.000000
 11
37.488968
 21
15.501197
 31
0.000000
  0
LINE
  8
daiko
 10
35.449776
 20
14.952259
 30
0.000000
 11
33.545448
 21
19.033575
 31
0.000000
  0
LINE
  8
daiko
 10
33.636573
 20
19.057151
 30
0.000000
 11
35.131981
 21
19.459706
 31
0.000000
  0
LINE
  8
daiko
 10
33.332943
 20
19.260415
 30
0.000000
 11
33.320247
 21
19.370997
 31
0.000000
  0
LINE
  8
daiko
 10
33.661123
 20
19.039023
 30
0.000000
 11
35.156531
 21
19.441577
 31
0.000000
  0
LINE
  8
daiko
 10
35.936280
 20
14.332291
 30
0.000000
 11
37.975472
 21
14.881229
 31
0.000000
  0
LINE
  8
daiko
 10
36.881919
 20
12.980341
 30
0.000000
 11
38.921112
 21
13.529279
 31
0.000000
  0
LINE
  8
daiko
 10
47.223292
 20
3.476704
 30
0.000000
 11
47.156831
 21
3.625764
 31
0.000000
  0
LINE
  8
daiko
 10
49.748833
 20
2.233318
 30
0.000000
 11
47.688283
 21
2.919102
 31
0.000000
  0
LINE
  8
daiko
 10
49.815579
 20
1.928405
 30
0.000000
 11
49.828274
 21
2.007554
 31
0.000000
  0
LINE
  8
daiko
 10
49.791029
 20
1.971062
 30
0.000000
 11
49.815579
 21
1.928405
 31
0.000000
  0
LINE
  8
daiko
 10
49.803724
 20
2.050211
 30
0.000000
 11
49.791029
 21
1.971062
 31
0.000000
  0
LINE
  8
daiko
 10
47.698746
 20
2.861518
 30
0.000000
 11
49.759590
 21
2.175635
 31
0.000000
  0
LINE
  8
daiko
 10
47.136433
 20
3.615154
 30
0.000000
 11
47.212242
 21
3.446132
 31
0.000000
  0
LINE
  8
daiko
 10
47.212242
 20
3.446132
 30
0.000000
 11
45.993077
 21
3.117940
 31
0.000000
  0
LINE
  8
daiko
 10
47.698746
 20
2.861518
 30
0.000000
 11
45.659554
 21
2.312580
 31
0.000000
  0
LINE
  8
daiko
 10
49.759590
 20
2.096095
 30
0.000000
 11
47.804617
 21
1.565872
 31
0.000000
  0
LINE
  8
daiko
 10
45.659554
 20
2.312580
 30
0.000000
 11
47.720397
 21
1.626698
 31
0.000000
  0
LINE
  8
daiko
 10
49.511948
 20
1.657343
 30
0.000000
 11
49.487398
 21
1.700000
 31
0.000000
  0
LINE
  8
daiko
 10
49.487398
 20
1.700000
 30
0.000000
 11
47.991990
 21
1.297446
 31
0.000000
  0
LINE
  8
daiko
 10
47.764532
 20
1.501273
 30
0.000000
 11
47.751836
 21
1.422125
 31
0.000000
  0
LINE
  8
daiko
 10
49.511948
 20
1.657343
 30
0.000000
 11
48.016540
 21
1.254789
 31
0.000000
  0
LINE
  8
daiko
 10
35.395144
 20
12.745430
 30
0.000000
 11
35.148391
 21
13.050911
 31
0.000000
  0
LINE
  8
daiko
 10
35.220384
 20
13.165098
 30
0.000000
 11
36.226692
 21
13.435990
 31
0.000000
  0
LINE
  8
daiko
 10
40.085478
 20
15.467194
 30
0.000000
 11
40.115094
 21
12.649885
 31
0.000000
  0
LINE
  8
daiko
 10
40.018997
 20
12.332480
 30
0.000000
 11
39.985824
 21
15.488133
 31
0.000000
  0
LINE
  8
daiko
 10
39.917830
 20
15.469830
 30
0.000000
 11
39.829987
 21
12.396118
 31
0.000000
  0
LINE
  8
daiko
 10
40.085478
 20
15.467194
 30
0.000000
 11
40.606781
 21
14.821823
 31
0.000000
  0
LINE
  8
daiko
 10
35.438717
 20
12.793919
 30
0.000000
 11
36.212781
 21
13.002292
 31
0.000000
  0
LINE
  8
daiko
 10
22.811603
 20
11.278079
 30
0.000000
 11
22.058303
 21
12.210662
 31
0.000000
  0
LINE
  8
daiko
 10
47.523108
 20
15.761965
 30
0.000000
 11
48.153706
 21
10.380477
 31
0.000000
  0
LINE
  8
daiko
 10
48.049713
 20
10.456327
 30
0.000000
 11
47.480748
 21
15.311836
 31
0.000000
  0
LINE
  8
daiko
 10
48.215196
 20
10.334109
 30
0.000000
 11
47.588676
 21
15.680792
 31
0.000000
  0
LINE
  8
daiko
 10
46.825671
 20
12.306969
 30
0.000000
 11
46.856486
 21
15.679762
 31
0.000000
  0
LINE
  8
daiko
 10
27.052298
 20
6.245002
 30
0.000000
 11
27.102906
 21
6.262297
 31
0.000000
  0
LINE
  8
daiko
 10
27.102906
 20
6.262297
 30
0.000000
 11
27.146696
 21
6.284959
 31
0.000000
  0
LINE
  8
daiko
 10
27.146696
 20
6.284959
 30
0.000000
 11
27.181986
 21
6.312118
 31
0.000000
  0
LINE
  8
daiko
 10
27.181986
 20
6.312118
 30
0.000000
 11
27.207421
 21
6.342729
 31
0.000000
  0
LINE
  8
daiko
 10
27.207421
 20
6.342729
 30
0.000000
 11
27.222021
 21
6.375617
 31
0.000000
  0
LINE
  8
daiko
 10
27.222021
 20
6.375617
 30
0.000000
 11
27.225227
 21
6.409517
 31
0.000000
  0
LINE
  8
daiko
 10
27.225227
 20
6.409517
 30
0.000000
 11
27.216916
 21
6.443126
 31
0.000000
  0
LINE
  8
daiko
 10
27.216916
 20
6.443126
 30
0.000000
 11
27.197406
 21
6.475154
 31
0.000000
  0
LINE
  8
daiko
 10
8.841334
 20
8.278729
 30
0.000000
 11
8.733591
 21
8.056672
 31
0.000000
  0
LINE
  8
daiko
 10
8.733591
 20
8.056672
 30
0.000000
 11
8.581501
 21
7.848649
 31
0.000000
  0
LINE
  8
daiko
 10
8.581501
 20
7.848649
 30
0.000000
 11
8.392461
 21
7.664776
 31
0.000000
  0
LINE
  8
daiko
 10
8.392461
 20
7.664776
 30
0.000000
 11
8.175665
 21
7.513995
 31
0.000000
  0
LINE
  8
daiko
 10
8.175665
 20
7.513995
 30
0.000000
 11
7.941658
 21
7.403640
 31
0.000000
  0
LINE
  8
daiko
 10
7.941658
 20
7.403640
 30
0.000000
 11
7.701819
 21
7.339077
 31
0.000000
  0
LINE
  8
daiko
 10
7.701819
 20
7.339077
 30
0.000000
 11
7.467811
 21
7.323445
 31
0.000000
  0
LINE
  8
daiko
 10
7.467811
 20
7.323445
 30
0.000000
 11
7.251017
 21
7.357507
 31
0.000000
  0
LINE
  8
daiko
 10
7.251017
 20
7.357507
 30
0.000000
 11
7.061977
 21
7.439603
 31
0.000000
  0
LINE
  8
daiko
 10
7.061977
 20
7.439603
 30
0.000000
 11
6.909888
 21
7.565743
 31
0.000000
  0
LINE
  8
daiko
 10
6.909888
 20
7.565743
 30
0.000000
 11
6.802142
 21
7.729791
 31
0.000000
  0
LINE
  8
daiko
 10
8.892049
 20
8.215944
 30
0.000000
 11
8.784305
 21
7.993888
 31
0.000000
  0
LINE
  8
daiko
 10
8.784305
 20
7.993888
 30
0.000000
 11
8.632215
 21
7.785865
 31
0.000000
  0
LINE
  8
daiko
 10
8.632215
 20
7.785865
 30
0.000000
 11
8.443176
 21
7.601992
 31
0.000000
  0
LINE
  8
daiko
 10
8.443176
 20
7.601992
 30
0.000000
 11
8.226379
 21
7.451211
 31
0.000000
  0
LINE
  8
daiko
 10
8.226379
 20
7.451211
 30
0.000000
 11
7.992372
 21
7.340856
 31
0.000000
  0
LINE
  8
daiko
 10
7.992372
 20
7.340856
 30
0.000000
 11
7.752533
 21
7.276292
 31
0.000000
  0
LINE
  8
daiko
 10
7.752533
 20
7.276292
 30
0.000000
 11
7.518526
 21
7.260661
 31
0.000000
  0
LINE
  8
daiko
 10
7.518526
 20
7.260661
 30
0.000000
 11
7.301731
 21
7.294722
 31
0.000000
  0
LINE
  8
daiko
 10
7.301731
 20
7.294722
 30
0.000000
 11
7.112692
 21
7.376819
 31
0.000000
  0
LINE
  8
daiko
 10
7.112692
 20
7.376819
 30
0.000000
 11
6.960602
 21
7.502959
 31
0.000000
  0
LINE
  8
daiko
 10
6.960602
 20
7.502959
 30
0.000000
 11
6.938953
 21
7.528408
 31
0.000000
  0
LINE
  8
daiko
 10
8.892049
 20
8.679398
 30
0.000000
 11
8.882155
 21
8.689764
 31
0.000000
  0
LINE
  8
daiko
 10
8.882155
 20
8.689764
 30
0.000000
 11
8.872641
 21
8.695966
 31
0.000000
  0
LINE
  8
daiko
 10
8.872641
 20
8.695966
 30
0.000000
 11
8.863873
 21
8.697766
 31
0.000000
  0
LINE
  8
daiko
 10
8.863873
 20
8.697766
 30
0.000000
 11
8.856188
 21
8.695094
 31
0.000000
  0
LINE
  8
daiko
 10
8.856188
 20
8.695094
 30
0.000000
 11
8.849881
 21
8.688054
 31
0.000000
  0
LINE
  8
daiko
 10
8.849881
 20
8.688054
 30
0.000000
 11
8.845195
 21
8.676916
 31
0.000000
  0
LINE
  8
daiko
 10
8.845195
 20
8.676916
 30
0.000000
 11
8.842309
 21
8.662107
 31
0.000000
  0
LINE
  8
daiko
 10
8.842309
 20
8.662107
 30
0.000000
 11
8.841334
 21
8.644198
 31
0.000000
  0
LINE
  8
daiko
 10
6.802142
 20
8.095260
 30
0.000000
 11
6.803117
 21
8.113169
 31
0.000000
  0
LINE
  8
daiko
 10
6.803117
 20
8.113169
 30
0.000000
 11
6.806002
 21
8.127978
 31
0.000000
  0
LINE
  8
daiko
 10
6.806002
 20
8.127978
 30
0.000000
 11
6.810689
 21
8.139116
 31
0.000000
  0
LINE
  8
daiko
 10
6.810689
 20
8.139116
 30
0.000000
 11
6.816996
 21
8.146156
 31
0.000000
  0
LINE
  8
daiko
 10
0.198931
 20
5.089234
 30
0.000000
 11
0.155141
 21
5.066572
 31
0.000000
  0
LINE
  8
daiko
 10
0.155141
 20
5.066572
 30
0.000000
 11
0.119848
 21
5.039413
 31
0.000000
  0
LINE
  8
daiko
 10
0.119848
 20
5.039413
 30
0.000000
 11
0.094415
 21
5.008802
 31
0.000000
  0
LINE
  8
daiko
 10
0.094415
 20
5.008802
 30
0.000000
 11
0.079814
 21
4.975914
 31
0.000000
  0
LINE
  8
daiko
 10
0.079814
 20
4.975914
 30
0.000000
 11
0.076606
 21
4.942014
 31
0.000000
  0
LINE
  8
daiko
 10
0.076606
 20
4.942014
 30
0.000000
 11
0.084922
 21
4.908405
 31
0.000000
  0
LINE
  8
daiko
 10
0.084922
 20
4.908405
 30
0.000000
 11
0.104430
 21
4.876377
 31
0.000000
  0
LINE
  8
daiko
 10
12.822399
 20
3.350181
 30
0.000000
 11
12.714655
 21
3.128125
 31
0.000000
  0
LINE
  8
daiko
 10
12.714655
 20
3.128125
 30
0.000000
 11
12.562565
 21
2.920102
 31
0.000000
  0
LINE
  8
daiko
 10
12.562565
 20
2.920102
 30
0.000000
 11
12.373526
 21
2.736229
 31
0.000000
  0
LINE
  8
daiko
 10
12.373526
 20
2.736229
 30
0.000000
 11
12.156729
 21
2.585448
 31
0.000000
  0
LINE
  8
daiko
 10
12.156729
 20
2.585448
 30
0.000000
 11
11.922722
 21
2.475092
 31
0.000000
  0
LINE
  8
daiko
 10
11.922722
 20
2.475092
 30
0.000000
 11
11.682883
 21
2.410529
 31
0.000000
  0
LINE
  8
daiko
 10
11.682883
 20
2.410529
 30
0.000000
 11
11.448875
 21
2.394898
 31
0.000000
  0
LINE
  8
daiko
 10
11.448875
 20
2.394898
 30
0.000000
 11
11.232081
 21
2.428959
 31
0.000000
  0
LINE
  8
daiko
 10
11.232081
 20
2.428959
 30
0.000000
 11
11.043042
 21
2.511055
 31
0.000000
  0
LINE
  8
daiko
 10
11.043042
 20
2.511055
 30
0.000000
 11
10.890952
 21
2.637196
 31
0.000000
  0
LINE
  8
daiko
 10
10.890952
 20
2.637196
 30
0.000000
 11
10.783206
 21
2.801243
 31
0.000000
  0
LINE
  8
daiko
 10
12.873113
 20
3.287397
 30
0.000000
 11
12.765369
 21
3.065341
 31
0.000000
  0
LINE
  8
daiko
 10
12.765369
 20
3.065341
 30
0.000000
 11
12.613279
 21
2.857317
 31
0.000000
  0
LINE
  8
daiko
 10
12.613279
 20
2.857317
 30
0.000000
 11
12.424240
 21
2.673445
 31
0.000000
  0
LINE
  8
daiko
 10
12.424240
 20
2.673445
 30
0.000000
 11
12.207444
 21
2.522664
 31
0.000000
  0
LINE
  8
daiko
 10
12.207444
 20
2.522664
 30
0.000000
 11
11.973436
 21
2.412308
 31
0.000000
  0
LINE
  8
daiko
 10
11.973436
 20
2.412308
 30
0.000000
 11
11.733597
 21
2.347745
 31
0.000000
  0
LINE
  8
daiko
 10
11.733597
 20
2.347745
 30
0.000000
 11
11.499590
 21
2.332114
 31
0.000000
  0
LINE
  8
daiko
 10
11.499590
 20
2.332114
 30
0.000000
 11
11.282795
 21
2.366175
 31
0.000000
  0
LINE
  8
daiko
 10
11.282795
 20
2.366175
 30
0.000000
 11
11.093756
 21
2.448271
 31
0.000000
  0
LINE
  8
daiko
 10
11.093756
 20
2.448271
 30
0.000000
 11
10.941666
 21
2.574411
 31
0.000000
  0
LINE
  8
daiko
 10
10.941666
 20
2.574411
 30
0.000000
 11
10.920017
 21
2.599860
 31
0.000000
  0
LINE
  8
daiko
 10
38.921112
 20
13.529279
 30
0.000000
 11
38.819904
 21
13.802075
 31
0.000000
  0
LINE
  8
daiko
 10
38.819904
 20
13.802075
 30
0.000000
 11
38.708040
 21
14.055806
 31
0.000000
  0
LINE
  8
daiko
 10
38.708040
 20
14.055806
 30
0.000000
 11
38.588251
 21
14.284278
 31
0.000000
  0
LINE
  8
daiko
 10
38.588251
 20
14.284278
 30
0.000000
 11
38.463462
 21
14.481914
 31
0.000000
  0
LINE
  8
daiko
 10
38.463462
 20
14.481914
 30
0.000000
 11
38.336716
 21
14.643890
 31
0.000000
  0
LINE
  8
daiko
 10
38.336716
 20
14.643890
 30
0.000000
 11
38.211110
 21
14.766252
 31
0.000000
  0
LINE
  8
daiko
 10
38.211110
 20
14.766252
 30
0.000000
 11
38.089707
 21
14.846014
 31
0.000000
  0
LINE
  8
daiko
 10
38.089707
 20
14.846014
 30
0.000000
 11
37.975472
 21
14.881229
 31
0.000000
  0
LINE
  8
daiko
 10
35.428124
 20
19.917954
 30
0.000000
 11
35.419582
 21
19.933576
 31
0.000000
  0
LINE
  8
daiko
 10
35.419582
 20
19.933576
 30
0.000000
 11
35.410651
 21
19.944874
 31
0.000000
  0
LINE
  8
daiko
 10
35.410651
 20
19.944874
 30
0.000000
 11
35.402040
 21
19.950953
 31
0.000000
  0
LINE
  8
daiko
 10
35.402040
 20
19.950953
 30
0.000000
 11
35.394432
 21
19.951330
 31
0.000000
  0
LINE
  8
daiko
 10
35.394432
 20
19.951330
 30
0.000000
 11
35.388431
 21
19.945974
 31
0.000000
  0
LINE
  8
daiko
 10
35.388431
 20
19.945974
 30
0.000000
 11
35.384515
 21
19.935311
 31
0.000000
  0
LINE
  8
daiko
 10
35.384515
 20
19.935311
 30
0.000000
 11
35.382995
 21
19.920188
 31
0.000000
  0
LINE
  8
daiko
 10
35.382995
 20
19.920188
 30
0.000000
 11
35.383990
 21
19.901806
 31
0.000000
  0
LINE
  8
daiko
 10
35.359440
 20
19.919934
 30
0.000000
 11
35.357649
 21
19.953022
 31
0.000000
  0
LINE
  8
daiko
 10
35.357649
 20
19.953022
 30
0.000000
 11
35.360386
 21
19.980244
 31
0.000000
  0
LINE
  8
daiko
 10
35.360386
 20
19.980244
 30
0.000000
 11
35.367435
 21
19.999437
 31
0.000000
  0
LINE
  8
daiko
 10
35.367435
 20
19.999437
 30
0.000000
 11
35.378235
 21
20.009077
 31
0.000000
  0
LINE
  8
daiko
 10
35.378235
 20
20.009077
 30
0.000000
 11
35.391930
 21
20.008399
 31
0.000000
  0
LINE
  8
daiko
 10
35.391930
 20
20.008399
 30
0.000000
 11
35.407430
 21
19.997457
 31
0.000000
  0
LINE
  8
daiko
 10
35.407430
 20
19.997457
 30
0.000000
 11
35.423507
 21
19.977119
 31
0.000000
  0
LINE
  8
daiko
 10
35.423507
 20
19.977119
 30
0.000000
 11
35.438881
 21
19.949002
 31
0.000000
  0
LINE
  8
daiko
 10
37.964422
 20
14.939162
 30
0.000000
 11
38.081965
 21
14.902344
 31
0.000000
  0
LINE
  8
daiko
 10
38.081965
 20
14.902344
 30
0.000000
 11
38.206818
 21
14.819897
 31
0.000000
  0
LINE
  8
daiko
 10
38.206818
 20
14.819897
 30
0.000000
 11
38.335952
 21
14.693824
 31
0.000000
  0
LINE
  8
daiko
 10
38.335952
 20
14.693824
 30
0.000000
 11
38.466236
 21
14.527179
 31
0.000000
  0
LINE
  8
daiko
 10
38.466236
 20
14.527179
 30
0.000000
 11
38.594510
 21
14.324007
 31
0.000000
  0
LINE
  8
daiko
 10
38.594510
 20
14.324007
 30
0.000000
 11
38.717664
 21
14.089233
 31
0.000000
  0
LINE
  8
daiko
 10
38.717664
 20
14.089233
 30
0.000000
 11
38.832709
 21
13.828551
 31
0.000000
  0
LINE
  8
daiko
 10
38.832709
 20
13.828551
 30
0.000000
 11
38.936857
 21
13.548284
 31
0.000000
  0
LINE
  8
daiko
 10
39.804923
 20
15.386203
 30
0.000000
 11
39.803221
 21
15.379920
 31
0.000000
  0
LINE
  8
daiko
 10
39.803221
 20
15.379920
 30
0.000000
 11
39.802343
 21
15.372156
 31
0.000000
  0
LINE
  8
daiko
 10
33.320247
 20
19.370997
 30
0.000000
 11
33.318456
 21
19.404084
 31
0.000000
  0
LINE
  8
daiko
 10
33.318456
 20
19.404084
 30
0.000000
 11
33.321193
 21
19.431306
 31
0.000000
  0
LINE
  8
daiko
 10
33.321193
 20
19.431306
 30
0.000000
 11
33.328242
 21
19.450499
 31
0.000000
  0
LINE
  8
daiko
 10
33.328242
 20
19.450499
 30
0.000000
 11
33.339043
 21
19.460139
 31
0.000000
  0
LINE
  8
daiko
 10
36.881919
 20
12.980341
 30
0.000000
 11
36.780711
 21
13.253138
 31
0.000000
  0
LINE
  8
daiko
 10
36.780711
 20
13.253138
 30
0.000000
 11
36.668848
 21
13.506868
 31
0.000000
  0
LINE
  8
daiko
 10
36.668848
 20
13.506868
 30
0.000000
 11
36.549059
 21
13.735340
 31
0.000000
  0
LINE
  8
daiko
 10
36.549059
 20
13.735340
 30
0.000000
 11
36.424269
 21
13.932976
 31
0.000000
  0
LINE
  8
daiko
 10
36.424269
 20
13.932976
 30
0.000000
 11
36.297523
 21
14.094952
 31
0.000000
  0
LINE
  8
daiko
 10
36.297523
 20
14.094952
 30
0.000000
 11
36.171917
 21
14.217314
 31
0.000000
  0
LINE
  8
daiko
 10
36.171917
 20
14.217314
 30
0.000000
 11
36.050515
 21
14.297076
 31
0.000000
  0
LINE
  8
daiko
 10
36.050515
 20
14.297076
 30
0.000000
 11
35.936280
 21
14.332291
 31
0.000000
  0
LINE
  8
daiko
 10
47.751836
 20
1.422125
 30
0.000000
 11
47.750869
 21
1.384928
 31
0.000000
  0
LINE
  8
daiko
 10
47.750869
 20
1.384928
 30
0.000000
 11
47.760387
 21
1.351974
 31
0.000000
  0
LINE
  8
daiko
 10
47.760387
 20
1.351974
 30
0.000000
 11
47.780026
 21
1.324528
 31
0.000000
  0
LINE
  8
daiko
 10
47.780026
 20
1.324528
 30
0.000000
 11
47.809029
 21
1.303646
 31
0.000000
  0
LINE
  8
daiko
 10
47.809029
 20
1.303646
 30
0.000000
 11
47.846284
 21
1.290130
 31
0.000000
  0
LINE
  8
daiko
 10
47.846284
 20
1.290130
 30
0.000000
 11
47.890358
 21
1.284498
 31
0.000000
  0
LINE
  8
daiko
 10
47.890358
 20
1.284498
 30
0.000000
 11
47.939556
 21
1.286969
 31
0.000000
  0
LINE
  8
daiko
 10
47.939556
 20
1.286969
 30
0.000000
 11
47.991990
 21
1.297446
 31
0.000000
  0
LINE
  8
daiko
 10
45.092558
 20
2.835335
 30
0.000000
 11
44.481983
 21
2.687735
 31
0.000000
  0
LINE
  8
daiko
 10
44.481983
 20
2.687735
 30
0.000000
 11
43.853026
 21
2.568606
 31
0.000000
  0
LINE
  8
daiko
 10
43.853026
 20
2.568606
 30
0.000000
 11
43.209660
 21
2.478701
 31
0.000000
  0
LINE
  8
daiko
 10
43.209660
 20
2.478701
 30
0.000000
 11
42.555956
 21
2.418589
 31
0.000000
  0
LINE
  8
daiko
 10
42.555956
 20
2.418589
 30
0.000000
 11
41.896045
 21
2.388649
 31
0.000000
  0
LINE
  8
daiko
 10
41.896045
 20
2.388649
 30
0.000000
 11
41.234099
 21
2.389071
 31
0.000000
  0
LINE
  8
daiko
 10
41.234099
 20
2.389071
 30
0.000000
 11
40.574304
 21
2.419853
 31
0.000000
  0
LINE
  8
daiko
 10
40.574304
 20
2.419853
 30
0.000000
 11
39.920831
 21
2.480799
 31
0.000000
  0
LINE
  8
daiko
 10
39.920831
 20
2.480799
 30
0.000000
 11
39.277812
 21
2.571524
 31
0.000000
  0
LINE
  8
daiko
 10
39.277812
 20
2.571524
 30
0.000000
 11
38.649311
 21
2.691455
 31
0.000000
  0
LINE
  8
daiko
 10
38.649311
 20
2.691455
 30
0.000000
 11
38.039303
 21
2.839833
 31
0.000000
  0
LINE
  8
daiko
 10
38.039303
 20
2.839833
 30
0.000000
 11
37.451644
 21
3.015720
 31
0.000000
  0
LINE
  8
daiko
 10
37.451644
 20
3.015720
 30
0.000000
 11
36.890050
 21
3.218005
 31
0.000000
  0
LINE
  8
daiko
 10
36.890050
 20
3.218005
 30
0.000000
 11
36.358071
 21
3.445409
 31
0.000000
  0
LINE
  8
daiko
 10
36.358071
 20
3.445409
 30
0.000000
 11
35.859070
 21
3.696493
 31
0.000000
  0
LINE
  8
daiko
 10
35.859070
 20
3.696493
 30
0.000000
 11
35.396202
 21
3.969670
 31
0.000000
  0
LINE
  8
daiko
 10
35.396202
 20
3.969670
 30
0.000000
 11
34.972394
 21
4.263214
 31
0.000000
  0
LINE
  8
daiko
 10
34.972394
 20
4.263214
 30
0.000000
 11
34.590325
 21
4.575267
 31
0.000000
  0
LINE
  8
daiko
 10
34.590325
 20
4.575267
 30
0.000000
 11
34.252412
 21
4.903859
 31
0.000000
  0
LINE
  8
daiko
 10
34.252412
 20
4.903859
 30
0.000000
 11
33.960788
 21
5.246909
 31
0.000000
  0
LINE
  8
daiko
 10
33.960788
 20
5.246909
 30
0.000000
 11
33.717300
 21
5.602252
 31
0.000000
  0
LINE
  8
daiko
 10
33.717300
 20
5.602252
 30
0.000000
 11
33.523486
 21
5.967638
 31
0.000000
  0
LINE
  8
daiko
 10
33.523486
 20
5.967638
 30
0.000000
 11
33.380572
 21
6.340759
 31
0.000000
  0
LINE
  8
daiko
 10
33.380572
 20
6.340759
 30
0.000000
 11
33.289461
 21
6.719255
 31
0.000000
  0
LINE
  8
daiko
 10
33.289461
 20
6.719255
 30
0.000000
 11
33.250729
 21
7.100734
 31
0.000000
  0
LINE
  8
daiko
 10
33.250729
 20
7.100734
 30
0.000000
 11
33.264621
 21
7.482783
 31
0.000000
  0
LINE
  8
daiko
 10
33.264621
 20
7.482783
 30
0.000000
 11
33.331049
 21
7.862987
 31
0.000000
  0
LINE
  8
daiko
 10
33.331049
 20
7.862987
 30
0.000000
 11
33.449593
 21
8.238943
 31
0.000000
  0
LINE
  8
daiko
 10
33.449593
 20
8.238943
 30
0.000000
 11
33.619504
 21
8.608272
 31
0.000000
  0
LINE
  8
daiko
 10
33.619504
 20
8.608272
 30
0.000000
 11
33.839708
 21
8.968642
 31
0.000000
  0
LINE
  8
daiko
 10
33.839708
 20
8.968642
 30
0.000000
 11
34.108812
 21
9.317772
 31
0.000000
  0
LINE
  8
daiko
 10
34.108812
 20
9.317772
 30
0.000000
 11
34.425116
 21
9.653456
 31
0.000000
  0
LINE
  8
daiko
 10
34.425116
 20
9.653456
 30
0.000000
 11
34.786618
 21
9.973572
 31
0.000000
  0
LINE
  8
daiko
 10
34.786618
 20
9.973572
 30
0.000000
 11
35.191034
 21
10.276095
 31
0.000000
  0
LINE
  8
daiko
 10
35.191034
 20
10.276095
 30
0.000000
 11
35.635806
 21
10.559113
 31
0.000000
  0
LINE
  8
daiko
 10
35.635806
 20
10.559113
 30
0.000000
 11
36.118124
 21
10.820837
 31
0.000000
  0
LINE
  8
daiko
 10
36.118124
 20
10.820837
 30
0.000000
 11
36.634937
 21
11.059611
 31
0.000000
  0
LINE
  8
daiko
 10
36.634937
 20
11.059611
 30
0.000000
 11
37.182978
 21
11.273927
 31
0.000000
  0
LINE
  8
daiko
 10
37.182978
 20
11.273927
 30
0.000000
 11
37.758782
 21
11.462429
 31
0.000000
  0
LINE
  8
daiko
 10
37.758782
 20
11.462429
 30
0.000000
 11
38.358709
 21
11.623925
 31
0.000000
  0
LINE
  8
daiko
 10
38.358709
 20
11.623925
 30
0.000000
 11
38.978965
 21
11.757396
 31
0.000000
  0
LINE
  8
daiko
 10
38.978965
 20
11.757396
 30
0.000000
 11
39.615630
 21
11.861995
 31
0.000000
  0
LINE
  8
daiko
 10
39.615630
 20
11.861995
 30
0.000000
 11
40.264678
 21
11.937063
 31
0.000000
  0
LINE
  8
daiko
 10
40.264678
 20
11.937063
 30
0.000000
 11
40.922006
 21
11.982125
 31
0.000000
  0
LINE
  8
daiko
 10
40.922006
 20
11.982125
 30
0.000000
 11
41.583457
 21
11.996895
 31
0.000000
  0
LINE
  8
daiko
 10
41.583457
 20
11.996895
 30
0.000000
 11
42.244850
 21
11.981281
 31
0.000000
  0
LINE
  8
daiko
 10
42.244850
 20
11.981281
 30
0.000000
 11
42.902003
 21
11.935381
 31
0.000000
  0
LINE
  8
daiko
 10
42.902003
 20
11.935381
 30
0.000000
 11
43.550763
 21
11.859486
 31
0.000000
  0
LINE
  8
daiko
 10
43.550763
 20
11.859486
 30
0.000000
 11
44.187025
 21
11.754074
 31
0.000000
  0
LINE
  8
daiko
 10
44.187025
 20
11.754074
 30
0.000000
 11
44.806770
 21
11.619814
 31
0.000000
  0
LINE
  8
daiko
 10
44.806770
 20
11.619814
 30
0.000000
 11
45.406077
 21
11.457552
 31
0.000000
  0
LINE
  8
daiko
 10
45.406077
 20
11.457552
 30
0.000000
 11
45.981158
 21
11.268316
 31
0.000000
  0
LINE
  8
daiko
 10
45.981158
 20
11.268316
 30
0.000000
 11
46.528378
 21
11.053302
 31
0.000000
  0
LINE
  8
daiko
 10
47.044276
 20
10.813869
 30
0.000000
 11
47.525591
 21
10.551531
 31
0.000000
  0
LINE
  8
daiko
 10
47.525591
 20
10.551531
 30
0.000000
 11
47.969279
 21
10.267947
 31
0.000000
  0
LINE
  8
daiko
 10
47.969279
 20
10.267947
 30
0.000000
 11
48.372536
 21
9.964908
 31
0.000000
  0
LINE
  8
daiko
 10
48.372536
 20
9.964908
 30
0.000000
 11
48.732813
 21
9.644333
 31
0.000000
  0
LINE
  8
daiko
 10
48.732813
 20
9.644333
 30
0.000000
 11
49.047830
 21
9.308246
 31
0.000000
  0
LINE
  8
daiko
 10
49.047830
 20
9.308246
 30
0.000000
 11
49.315597
 21
8.958773
 31
0.000000
  0
LINE
  8
daiko
 10
49.315597
 20
8.958773
 30
0.000000
 11
49.534422
 21
8.598124
 31
0.000000
  0
LINE
  8
daiko
 10
49.534422
 20
8.598124
 30
0.000000
 11
49.702919
 21
8.228578
 31
0.000000
  0
LINE
  8
daiko
 10
49.702919
 20
8.228578
 30
0.000000
 11
49.820024
 21
7.852472
 31
0.000000
  0
LINE
  8
daiko
 10
49.820024
 20
7.852472
 30
0.000000
 11
49.884997
 21
7.472184
 31
0.000000
  0
LINE
  8
daiko
 10
49.884997
 20
7.472184
 30
0.000000
 11
49.897427
 21
7.090118
 31
0.000000
  0
LINE
  8
daiko
 10
49.897427
 20
7.090118
 30
0.000000
 11
49.857236
 21
6.708690
 31
0.000000
  0
LINE
  8
daiko
 10
49.857236
 20
6.708690
 30
0.000000
 11
49.764676
 21
6.330311
 31
0.000000
  0
LINE
  8
daiko
 10
49.764676
 20
6.330311
 30
0.000000
 11
49.620334
 21
5.957373
 31
0.000000
  0
LINE
  8
daiko
 10
49.620334
 20
5.957373
 30
0.000000
 11
49.425122
 21
5.592235
 31
0.000000
  0
LINE
  8
daiko
 10
49.425122
 20
5.592235
 30
0.000000
 11
49.180274
 21
5.237204
 31
0.000000
  0
LINE
  8
daiko
 10
49.180274
 20
5.237204
 30
0.000000
 11
48.887340
 21
4.894526
 31
0.000000
  0
LINE
  8
daiko
 10
48.887340
 20
4.894526
 30
0.000000
 11
48.548169
 21
4.566366
 31
0.000000
  0
LINE
  8
daiko
 10
48.548169
 20
4.566366
 30
0.000000
 11
48.164906
 21
4.254801
 31
0.000000
  0
LINE
  8
daiko
 10
48.164906
 20
4.254801
 30
0.000000
 11
47.739976
 21
3.961799
 31
0.000000
  0
LINE
  8
daiko
 10
47.739976
 20
3.961799
 30
0.000000
 11
47.276065
 21
3.689212
 31
0.000000
  0
LINE
  8
daiko
 10
47.276065
 20
3.689212
 30
0.000000
 11
46.776104
 21
3.438765
 31
0.000000
  0
LINE
  8
daiko
 10
46.776104
 20
3.438765
 30
0.000000
 11
46.243256
 21
3.212041
 31
0.000000
  0
LINE
  8
daiko
 10
46.243256
 20
3.212041
 30
0.000000
 11
45.680888
 21
3.010473
 31
0.000000
  0
LINE
  8
daiko
 10
45.680888
 20
3.010473
 30
0.000000
 11
45.092558
 21
2.835335
 31
0.000000
  0
LINE
  8
daiko
 10
47.759811
 20
8.733608
 30
0.000000
 11
47.480685
 21
9.042683
 31
0.000000
  0
LINE
  8
daiko
 10
47.480685
 20
9.042683
 30
0.000000
 11
47.155334
 21
9.336308
 31
0.000000
  0
LINE
  8
daiko
 10
47.155334
 20
9.336308
 30
0.000000
 11
46.786302
 21
9.612185
 31
0.000000
  0
LINE
  8
daiko
 10
46.786302
 20
9.612185
 30
0.000000
 11
46.376480
 21
9.868153
 31
0.000000
  0
LINE
  8
daiko
 10
46.376480
 20
9.868153
 30
0.000000
 11
45.929073
 21
10.102210
 31
0.000000
  0
LINE
  8
daiko
 10
45.929073
 20
10.102210
 30
0.000000
 11
45.447584
 21
10.312525
 31
0.000000
  0
LINE
  8
daiko
 10
45.447584
 20
10.312525
 30
0.000000
 11
44.935782
 21
10.497450
 31
0.000000
  0
LINE
  8
daiko
 10
44.935782
 20
10.497450
 30
0.000000
 11
44.397670
 21
10.655539
 31
0.000000
  0
LINE
  8
daiko
 10
44.397670
 20
10.655539
 30
0.000000
 11
43.837462
 21
10.785555
 31
0.000000
  0
LINE
  8
daiko
 10
43.837462
 20
10.785555
 30
0.000000
 11
43.259541
 21
10.886479
 31
0.000000
  0
LINE
  8
daiko
 10
43.259541
 20
10.886479
 30
0.000000
 11
42.668431
 21
10.957523
 31
0.000000
  0
LINE
  8
daiko
 10
42.668431
 20
10.957523
 30
0.000000
 11
42.068757
 21
10.998130
 31
0.000000
  0
LINE
  8
daiko
 10
42.068757
 20
10.998130
 30
0.000000
 11
41.465213
 21
11.007982
 31
0.000000
  0
LINE
  8
daiko
 10
41.465213
 20
11.007982
 30
0.000000
 11
40.862523
 21
10.987003
 31
0.000000
  0
LINE
  8
daiko
 10
40.862523
 20
10.987003
 30
0.000000
 11
40.265402
 21
10.935356
 31
0.000000
  0
LINE
  8
daiko
 10
40.265402
 20
10.935356
 30
0.000000
 11
39.678526
 21
10.853445
 31
0.000000
  0
LINE
  8
daiko
 10
39.678526
 20
10.853445
 30
0.000000
 11
39.106486
 21
10.741912
 31
0.000000
  0
LINE
  8
daiko
 10
39.106486
 20
10.741912
 30
0.000000
 11
38.553760
 21
10.601630
 31
0.000000
  0
LINE
  8
daiko
 10
38.553760
 20
10.601630
 30
0.000000
 11
38.024673
 21
10.433696
 31
0.000000
  0
LINE
  8
daiko
 10
38.024673
 20
10.433696
 30
0.000000
 11
37.523367
 21
10.239424
 31
0.000000
  0
LINE
  8
daiko
 10
37.523367
 20
10.239424
 30
0.000000
 11
37.053764
 21
10.020336
 31
0.000000
  0
LINE
  8
daiko
 10
37.053764
 20
10.020336
 30
0.000000
 11
36.619540
 21
9.778146
 31
0.000000
  0
LINE
  8
daiko
 10
36.619540
 20
9.778146
 30
0.000000
 11
36.224094
 21
9.514749
 31
0.000000
  0
LINE
  8
daiko
 10
36.224094
 20
9.514749
 30
0.000000
 11
35.870520
 21
9.232207
 31
0.000000
  0
LINE
  8
daiko
 10
35.870520
 20
9.232207
 30
0.000000
 11
35.561586
 21
8.932731
 31
0.000000
  0
LINE
  8
daiko
 10
35.561586
 20
8.932731
 30
0.000000
 11
35.299709
 21
8.618665
 31
0.000000
  0
LINE
  8
daiko
 10
35.299709
 20
8.618665
 30
0.000000
 11
35.086939
 21
8.292466
 31
0.000000
  0
LINE
  8
daiko
 10
35.086939
 20
8.292466
 30
0.000000
 11
34.924941
 21
7.956689
 31
0.000000
  0
LINE
  8
daiko
 10
34.924941
 20
7.956689
 30
0.000000
 11
34.814982
 21
7.613960
 31
0.000000
  0
LINE
  8
daiko
 10
34.814982
 20
7.613960
 30
0.000000
 11
34.757925
 21
7.266962
 31
0.000000
  0
LINE
  8
daiko
 10
34.757925
 20
7.266962
 30
0.000000
 11
34.754214
 21
6.918411
 31
0.000000
  0
LINE
  8
daiko
 10
34.754214
 20
6.918411
 30
0.000000
 11
34.803880
 21
6.571034
 31
0.000000
  0
LINE
  8
daiko
 10
34.803880
 20
6.571034
 30
0.000000
 11
34.906533
 21
6.227551
 31
0.000000
  0
LINE
  8
daiko
 10
34.906533
 20
6.227551
 30
0.000000
 11
35.061370
 21
5.890649
 31
0.000000
  0
LINE
  8
daiko
 10
35.061370
 20
5.890649
 30
0.000000
 11
35.267179
 21
5.562966
 31
0.000000
  0
LINE
  8
daiko
 10
35.267179
 20
5.562966
 30
0.000000
 11
35.522350
 21
5.247065
 31
0.000000
  0
LINE
  8
daiko
 10
35.522350
 20
5.247065
 30
0.000000
 11
35.824885
 21
4.945420
 31
0.000000
  0
LINE
  8
daiko
 10
35.824885
 20
4.945420
 30
0.000000
 11
36.172416
 21
4.660390
 31
0.000000
  0
LINE
  8
daiko
 10
36.172416
 20
4.660390
 30
0.000000
 11
36.562225
 21
4.394207
 31
0.000000
  0
LINE
  8
daiko
 10
36.562225
 20
4.394207
 30
0.000000
 11
36.991259
 21
4.148955
 31
0.000000
  0
LINE
  8
daiko
 10
36.991259
 20
4.148955
 30
0.000000
 11
37.456162
 21
3.926551
 31
0.000000
  0
LINE
  8
daiko
 10
37.456162
 20
3.926551
 30
0.000000
 11
37.953294
 21
3.728738
 31
0.000000
  0
LINE
  8
daiko
 10
37.953294
 20
3.728738
 30
0.000000
 11
38.478766
 21
3.557062
 31
0.000000
  0
LINE
  8
daiko
 10
38.478766
 20
3.557062
 30
0.000000
 11
39.028463
 21
3.412869
 31
0.000000
  0
LINE
  8
daiko
 10
39.028463
 20
3.412869
 30
0.000000
 11
39.598086
 21
3.297285
 31
0.000000
  0
LINE
  8
daiko
 10
39.598086
 20
3.297285
 30
0.000000
 11
40.183174
 21
3.211217
 31
0.000000
  0
LINE
  8
daiko
 10
40.183174
 20
3.211217
 30
0.000000
 11
40.779149
 21
3.155337
 31
0.000000
  0
LINE
  8
daiko
 10
40.779149
 20
3.155337
 30
0.000000
 11
41.381348
 21
3.130082
 31
0.000000
  0
LINE
  8
daiko
 10
41.381348
 20
3.130082
 30
0.000000
 11
41.985056
 21
3.135652
 31
0.000000
  0
LINE
  8
daiko
 10
41.985056
 20
3.135652
 30
0.000000
 11
42.585549
 21
3.172001
 31
0.000000
  0
LINE
  8
daiko
 10
42.585549
 20
3.172001
 30
0.000000
 11
43.178127
 21
3.238845
 31
0.000000
  0
LINE
  8
daiko
 10
43.178127
 20
3.238845
 30
0.000000
 11
43.758153
 21
3.335662
 31
0.000000
  0
LINE
  8
daiko
 10
43.758153
 20
3.335662
 30
0.000000
 11
44.321087
 21
3.461693
 31
0.000000
  0
LINE
  8
daiko
 10
44.321087
 20
3.461693
 30
0.000000
 11
44.862524
 21
3.615952
 31
0.000000
  0
LINE
  8
daiko
 10
44.862524
 20
3.615952
 30
0.000000
 11
45.378225
 21
3.797232
 31
0.000000
  0
LINE
  8
daiko
 10
45.378225
 20
3.797232
 30
0.000000
 11
45.864155
 21
4.004114
 31
0.000000
  0
LINE
  8
daiko
 10
45.864155
 20
4.004114
 30
0.000000
 11
46.316511
 21
4.234979
 31
0.000000
  0
LINE
  8
daiko
 10
46.316511
 20
4.234979
 30
0.000000
 11
46.731752
 21
4.488020
 31
0.000000
  0
LINE
  8
daiko
 10
46.731752
 20
4.488020
 30
0.000000
 11
47.106629
 21
4.761257
 31
0.000000
  0
LINE
  8
daiko
 10
47.106629
 20
4.761257
 30
0.000000
 11
47.438208
 21
5.052551
 31
0.000000
  0
LINE
  8
daiko
 10
47.438208
 20
5.052551
 30
0.000000
 11
47.723893
 21
5.359623
 31
0.000000
  0
LINE
  8
daiko
 10
47.723893
 20
5.359623
 30
0.000000
 11
47.961449
 21
5.680069
 31
0.000000
  0
LINE
  8
daiko
 10
47.961449
 20
5.680069
 30
0.000000
 11
48.149017
 21
6.011381
 31
0.000000
  0
LINE
  8
daiko
 10
48.149017
 20
6.011381
 30
0.000000
 11
48.285128
 21
6.350967
 31
0.000000
  0
LINE
  8
daiko
 10
48.285128
 20
6.350967
 30
0.000000
 11
48.368718
 21
6.696168
 31
0.000000
  0
LINE
  8
daiko
 10
48.368718
 20
6.696168
 30
0.000000
 11
48.399132
 21
7.044284
 31
0.000000
  0
LINE
  8
daiko
 10
48.399132
 20
7.044284
 30
0.000000
 11
48.376132
 21
7.392588
 31
0.000000
  0
LINE
  8
daiko
 10
48.376132
 20
7.392588
 30
0.000000
 11
48.299898
 21
7.738357
 31
0.000000
  0
LINE
  8
daiko
 10
48.299898
 20
7.738357
 30
0.000000
 11
48.171027
 21
8.078883
 31
0.000000
  0
LINE
  8
daiko
 10
48.171027
 20
8.078883
 30
0.000000
 11
47.990527
 21
8.411501
 31
0.000000
  0
LINE
  8
daiko
 10
47.990527
 20
8.411501
 30
0.000000
 11
47.759811
 21
8.733608
 31
0.000000
  0
LINE
  8
daiko
 10
49.119273
 20
9.467010
 30
0.000000
 11
48.815893
 21
9.806646
 31
0.000000
  0
LINE
  8
daiko
 10
48.815893
 20
9.806646
 30
0.000000
 11
48.466729
 21
10.131294
 31
0.000000
  0
LINE
  8
daiko
 10
48.466729
 20
10.131294
 30
0.000000
 11
48.073988
 21
10.438900
 31
0.000000
  0
LINE
  8
daiko
 10
48.073988
 20
10.438900
 30
0.000000
 11
47.640154
 21
10.727521
 31
0.000000
  0
LINE
  8
daiko
 10
47.640154
 20
10.727521
 30
0.000000
 11
47.167969
 21
10.995332
 31
0.000000
  0
LINE
  8
daiko
 10
46.660420
 20
11.240639
 30
0.000000
 11
46.120714
 21
11.461892
 31
0.000000
  0
LINE
  8
daiko
 10
46.120714
 20
11.461892
 30
0.000000
 11
45.552263
 21
11.657691
 31
0.000000
  0
LINE
  8
daiko
 10
45.552263
 20
11.657691
 30
0.000000
 11
44.958663
 21
11.826798
 31
0.000000
  0
LINE
  8
daiko
 10
44.958663
 20
11.826798
 30
0.000000
 11
44.343665
 21
11.968146
 31
0.000000
  0
LINE
  8
daiko
 10
44.343665
 20
11.968146
 30
0.000000
 11
43.711159
 21
12.080840
 31
0.000000
  0
LINE
  8
daiko
 10
43.711159
 20
12.080840
 30
0.000000
 11
43.065142
 21
12.164166
 31
0.000000
  0
LINE
  8
daiko
 10
43.065142
 20
12.164166
 30
0.000000
 11
42.409699
 21
12.217600
 31
0.000000
  0
LINE
  8
daiko
 10
42.409699
 20
12.217600
 30
0.000000
 11
41.748974
 21
12.240802
 31
0.000000
  0
LINE
  8
daiko
 10
41.748974
 20
12.240802
 30
0.000000
 11
41.087145
 21
12.233626
 31
0.000000
  0
LINE
  8
daiko
 10
41.087145
 20
12.233626
 30
0.000000
 11
40.428395
 21
12.196118
 31
0.000000
  0
LINE
  8
daiko
 10
40.428395
 20
12.196118
 30
0.000000
 11
39.776890
 21
12.128515
 31
0.000000
  0
LINE
  8
daiko
 10
39.776890
 20
12.128515
 30
0.000000
 11
39.136749
 21
12.031243
 31
0.000000
  0
LINE
  8
daiko
 10
39.136749
 20
12.031243
 30
0.000000
 11
38.512018
 21
11.904919
 31
0.000000
  0
LINE
  8
daiko
 10
38.512018
 20
11.904919
 30
0.000000
 11
37.906648
 21
11.750340
 31
0.000000
  0
LINE
  8
daiko
 10
37.906648
 20
11.750340
 30
0.000000
 11
37.324465
 21
11.568484
 31
0.000000
  0
LINE
  8
daiko
 10
37.324465
 20
11.568484
 30
0.000000
 11
36.769152
 21
11.360501
 31
0.000000
  0
LINE
  8
daiko
 10
36.769152
 20
11.360501
 30
0.000000
 11
36.244217
 21
11.127706
 31
0.000000
  0
LINE
  8
daiko
 10
36.244217
 20
11.127706
 30
0.000000
 11
35.752981
 21
10.871570
 31
0.000000
  0
LINE
  8
daiko
 10
35.752981
 20
10.871570
 30
0.000000
 11
35.298549
 21
10.593713
 31
0.000000
  0
LINE
  8
daiko
 10
35.298549
 20
10.593713
 30
0.000000
 11
34.883794
 21
10.295891
 31
0.000000
  0
LINE
  8
daiko
 10
34.883794
 20
10.295891
 30
0.000000
 11
34.511338
 21
9.979988
 31
0.000000
  0
LINE
  8
daiko
 10
34.511338
 20
9.979988
 30
0.000000
 11
34.183536
 21
9.648001
 31
0.000000
  0
LINE
  8
daiko
 10
34.183536
 20
9.648001
 30
0.000000
 11
33.902461
 21
9.302028
 31
0.000000
  0
LINE
  8
daiko
 10
33.902461
 20
9.302028
 30
0.000000
 11
33.669889
 21
8.944257
 31
0.000000
  0
LINE
  8
daiko
 10
33.669889
 20
8.944257
 30
0.000000
 11
33.487292
 21
8.576950
 31
0.000000
  0
LINE
  8
daiko
 10
33.487292
 20
8.576950
 30
0.000000
 11
33.355823
 21
8.202430
 31
0.000000
  0
LINE
  8
daiko
 10
33.355823
 20
8.202430
 30
0.000000
 11
33.276313
 21
7.823063
 31
0.000000
  0
LINE
  8
daiko
 10
33.276313
 20
7.823063
 30
0.000000
 11
33.249266
 21
7.441249
 31
0.000000
  0
LINE
  8
daiko
 10
33.249266
 20
7.441249
 30
0.000000
 11
33.249261
 21
7.435940
 31
0.000000
  0
LINE
  8
daiko
 10
46.128410
 20
13.428473
 30
0.000000
 11
45.793471
 21
13.698853
 31
0.000000
  0
LINE
  8
daiko
 10
45.793471
 20
13.698853
 30
0.000000
 11
45.410571
 21
13.947110
 31
0.000000
  0
LINE
  8
daiko
 10
45.410571
 20
13.947110
 30
0.000000
 11
44.984063
 21
14.170422
 31
0.000000
  0
LINE
  8
daiko
 10
44.984063
 20
14.170422
 30
0.000000
 11
44.518795
 21
14.366252
 31
0.000000
  0
LINE
  8
daiko
 10
44.518795
 20
14.366252
 30
0.000000
 11
44.020055
 21
14.532373
 31
0.000000
  0
LINE
  8
daiko
 10
44.020055
 20
14.532373
 30
0.000000
 11
43.493514
 21
14.666896
 31
0.000000
  0
LINE
  8
daiko
 10
43.493514
 20
14.666896
 30
0.000000
 11
42.945155
 21
14.768293
 31
0.000000
  0
LINE
  8
daiko
 10
42.945155
 20
14.768293
 30
0.000000
 11
42.381214
 21
14.835410
 31
0.000000
  0
LINE
  8
daiko
 10
42.381214
 20
14.835410
 30
0.000000
 11
41.808099
 21
14.867485
 31
0.000000
  0
LINE
  8
daiko
 10
41.808099
 20
14.867485
 30
0.000000
 11
41.232327
 21
14.864154
 31
0.000000
  0
LINE
  8
daiko
 10
41.232327
 20
14.864154
 30
0.000000
 11
40.606781
 21
14.821823
 31
0.000000
  0
LINE
  8
daiko
 10
46.128649
 20
13.428258
 30
0.000000
 11
46.124245
 21
13.668665
 31
0.000000
  0
LINE
  8
daiko
 10
46.124245
 20
13.668665
 30
0.000000
 11
46.106598
 21
14.630290
 31
0.000000
  0
LINE
  8
daiko
 10
46.106598
 20
14.630290
 30
0.000000
 11
46.086100
 21
15.743869
 31
0.000000
  0
LINE
  8
daiko
 10
47.480748
 20
15.311836
 30
0.000000
 11
47.487053
 21
14.958292
 31
0.000000
  0
LINE
  8
daiko
 10
47.487053
 20
14.958292
 30
0.000000
 11
47.546662
 21
11.611978
 31
0.000000
  0
LINE
  8
daiko
 10
47.546662
 20
11.611978
 30
0.000000
 11
47.561369
 21
10.785495
 31
0.000000
  0
LINE
  8
daiko
 10
46.276553
 20
15.711396
 30
0.000000
 11
46.297516
 21
14.556494
 31
0.000000
  0
LINE
  8
daiko
 10
46.297516
 20
14.556494
 30
0.000000
 11
46.318106
 21
13.418355
 31
0.000000
  0
LINE
  8
daiko
 10
46.092155
 20
16.579690
 30
0.000000
 11
46.139641
 21
16.520902
 31
0.000000
  0
LINE
  8
daiko
 10
45.976645
 20
16.477024
 30
0.000000
 11
46.888093
 21
16.720125
 31
0.000000
  0
LINE
  8
daiko
 10
47.050753
 20
16.695685
 30
0.000000
 11
47.919734
 21
15.626223
 31
0.000000
  0
LINE
  8
daiko
 10
47.919734
 20
15.626223
 30
0.000000
 11
48.012342
 21
15.102331
 31
0.000000
  0
LINE
  8
daiko
 10
48.012342
 20
15.102331
 30
0.000000
 11
48.000622
 21
14.829790
 31
0.000000
  0
LINE
  8
daiko
 10
47.986613
 20
14.868531
 30
0.000000
 11
47.690943
 21
15.234569
 31
0.000000
  0
LINE
  8
daiko
 10
47.708644
 20
14.699916
 30
0.000000
 11
47.960497
 21
14.772980
 31
0.000000
  0
LINE
  8
daiko
 10
47.971369
 20
15.207020
 30
0.000000
 11
47.124682
 21
16.255215
 31
0.000000
  0
LINE
  8
daiko
 10
47.403159
 20
15.590845
 30
0.000000
 11
47.126465
 21
15.933392
 31
0.000000
  0
LINE
  8
daiko
 10
46.908101
 20
15.998900
 30
0.000000
 11
46.721911
 21
15.948778
 31
0.000000
  0
LINE
  8
daiko
 10
46.276553
 20
15.711396
 30
0.000000
 11
46.731917
 21
15.833977
 31
0.000000
  0
LINE
  8
daiko
 10
46.685647
 20
15.891260
 30
0.000000
 11
46.856486
 21
15.679762
 31
0.000000
  0
LINE
  8
daiko
 10
47.480748
 20
15.311836
 30
0.000000
 11
47.491668
 21
15.781440
 31
0.000000
  0
LINE
  8
daiko
 10
47.003470
 20
16.040287
 30
0.000000
 11
47.011090
 21
16.320849
 31
0.000000
  0
LINE
  8
daiko
 10
47.011090
 20
16.320849
 30
0.000000
 11
46.977192
 21
16.706606
 31
0.000000
  0
LINE
  8
daiko
 10
46.678642
 20
15.908502
 30
0.000000
 11
46.666980
 21
16.182008
 31
0.000000
  0
LINE
  8
daiko
 10
46.912851
 20
16.312636
 30
0.000000
 11
45.876179
 21
16.033571
 31
0.000000
  0
LINE
  8
daiko
 10
45.784652
 20
16.026644
 30
0.000000
 11
45.690263
 21
16.447041
 31
0.000000
  0
LINE
  8
daiko
 10
45.690263
 20
16.447041
 30
0.000000
 11
45.642769
 21
16.557169
 31
0.000000
  0
LINE
  8
daiko
 10
9.110406
 20
8.515985
 30
0.000000
 11
9.110406
 21
8.815375
 31
0.000000
  0
LINE
  8
daiko
 10
40.018997
 20
12.332480
 30
0.000000
 11
39.829987
 21
12.396118
 31
0.000000
  0
LINE
  8
daiko
 10
39.829987
 20
12.396118
 30
0.000000
 11
39.795529
 21
12.666570
 31
0.000000
  0
LINE
  8
daiko
 10
40.018997
 20
12.332480
 30
0.000000
 11
40.115094
 21
12.649885
 31
0.000000
  0
LINE
  8
daiko
 10
39.874542
 20
15.431312
 30
0.000000
 11
39.917830
 21
15.469830
 31
0.000000
  0
LINE
  8
daiko
 10
39.917830
 20
15.469830
 30
0.000000
 11
39.985824
 21
15.488133
 31
0.000000
  0
LINE
  8
daiko
 10
39.985824
 20
15.488133
 30
0.000000
 11
40.085478
 21
15.467194
 31
0.000000
  0
LINE
  8
daiko
 10
47.472911
 20
10.822377
 30
0.000000
 11
46.825671
 21
12.306969
 31
0.000000
  0
LINE
  8
daiko
 10
46.825671
 20
12.306969
 30
0.000000
 11
46.318106
 21
13.418355
 31
0.000000
  0
LINE
  8
daiko
 10
46.128649
 20
13.428258
 30
0.000000
 11
47.367954
 21
10.881906
 31
0.000000
  0
ENDBLK
  0
ENDSEC
  0
SECTION
  2
ENTITIES
  0
INSERT
  8
daiko
  2
TOP
 10
-0.076324
 20
-0.095340
 30
0.000000
  0
TEXT
  8
daiko
 10
0.000000
 20
-11.000000
 30
0.000000
 40
3.000000
  1
DDL-4814FW
  7
BIGFONT
  0
TEXT
  8
daiko
 10
0.000000
 20
-15.000000
 30
0.000000
 40
3.000000
  1
LEDﾀﾞｳﾝﾗｲﾄ
  7
BIGFONT
  0
TEXT
  8
daiko
 10
0.000000
 20
-19.000000
 30
0.000000
 40
3.000000
  1
LDE8.4W
  7
BIGFONT
  0
TEXT
  8
daiko
 10
0.000000
 20
-23.000000
 30
0.000000
 40
3.000000
  1
消費電力 8.4W
  7
BIGFONT
  0
TEXT
  8
daiko
 10
0.000000
 20
-27.000000
 30
0.000000
 40
3.000000
  1
光束値 570lm
  7
BIGFONT
  0
TEXT
  8
daiko
 10
0.000000
 20
-31.000000
 30
0.000000
 40
3.000000
  1
色温度 5000K～2700K Ra83
  7
BIGFONT
  0
TEXT
  8
daiko
 10
0.000000
 20
-35.000000
 30
0.000000
 40
3.000000
  1
施工寸法 φ100 H=80mm
  7
BIGFONT
  0
TEXT
  8
daiko
 10
0.000000
 20
-39.000000
 30
0.000000
 40
3.000000
  1
枠／白塗装
  7
BIGFONT
  0
ENDSEC
  0
EOF
