  0
SECTION
  2
HEADER
  9
$EXTMIN
 10
0.000000
 20
-40.000000
 30
0.000000
  9
$EXTMAX
 10
49.279485
 20
27.308423
 30
0.000000
  0
ENDSEC
  0
SECTION
  2
TABLES
  0
TABLE
  2
LTYPE
 70
     1
  0
LTYPE
  2
CONTINUOUS
 70
     0
  3
Solid line
 72
    65
 73
     0
 40
0.000000
  0
ENDTAB
  0
TABLE
  2
STYLE
 70
     2
  0
STYLE
  2
BIGFONT
 70
     0
 40
1.000000
 41
1.000000
 50
0.000000
 71
     0
 42
0.000000
  3
txt
  4
bigfont
  0
STYLE
  2
STANDARD
 70
     0
 40
0.000000
 41
1.000000
 50
0.000000
 71
     0
 42
3.500000
  3
txt.shx
  4
bigfont.shx
  0
ENDTAB
  0
TABLE
  2
LAYER
 70
     1
  0
LAYER
  2
daiko
 70
     0
 62
     7
  6
CONTINUOUS
  0
ENDTAB
  0
ENDSEC
  0
SECTION
  2
ENTITIES
  0
LINE
  8
daiko
 10
32.303278
 20
19.046032
 30
0.000000
 11
31.925434
 21
19.264156
 31
0.000000
  0
LINE
  8
daiko
 10
24.870339
 20
19.400916
 30
0.000000
 11
24.682851
 21
19.509150
 31
0.000000
  0
LINE
  8
daiko
 10
31.674447
 20
19.509150
 30
0.000000
 11
31.486959
 21
19.400916
 31
0.000000
  0
LINE
  8
daiko
 10
37.530211
 20
16.028587
 30
0.000000
 11
37.152367
 21
16.246712
 31
0.000000
  0
LINE
  8
daiko
 10
23.506971
 20
19.289324
 30
0.000000
 11
23.506971
 21
19.840371
 31
0.000000
  0
LINE
  8
daiko
 10
24.095163
 20
19.519797
 30
0.000000
 11
22.460430
 21
20.463508
 31
0.000000
  0
LINE
  8
daiko
 10
35.937378
 20
17.209598
 30
0.000000
 11
32.017178
 21
19.472682
 31
0.000000
  0
LINE
  8
daiko
 10
23.506971
 20
19.840371
 30
0.000000
 11
22.736269
 21
19.395454
 31
0.000000
  0
LINE
  8
daiko
 10
35.540614
 20
18.170066
 30
0.000000
 11
35.937378
 21
17.209598
 31
0.000000
  0
ARC
  8
daiko
 10
28.173837
 20
7.114147
 30
0.000000
 40
13.285434
 50
56.323699
 51
82.239451
  0
LINE
  8
daiko
 10
19.542188
 20
16.982510
 30
0.000000
 11
19.511568
 21
16.307363
 31
0.000000
  0
LINE
  8
daiko
 10
46.309574
 20
10.466760
 30
0.000000
 11
46.309574
 21
10.844002
 31
0.000000
  0
LINE
  8
daiko
 10
13.314558
 20
10.278139
 30
0.000000
 11
28.178649
 21
18.858997
 31
0.000000
  0
LINE
  8
daiko
 10
13.314558
 20
10.278139
 30
0.000000
 11
10.047724
 21
10.466760
 31
0.000000
  0
LINE
  8
daiko
 10
10.047724
 20
10.466760
 30
0.000000
 11
28.178649
 21
20.933521
 31
0.000000
  0
LINE
  8
daiko
 10
43.042740
 20
10.278139
 30
0.000000
 11
28.178649
 21
18.858997
 31
0.000000
  0
LINE
  8
daiko
 10
46.309574
 20
10.466760
 30
0.000000
 11
28.178649
 21
20.933521
 31
0.000000
  0
LINE
  8
daiko
 10
43.042740
 20
10.278139
 30
0.000000
 11
46.309574
 21
10.466760
 31
0.000000
  0
LINE
  8
daiko
 10
46.309574
 20
10.844002
 30
0.000000
 11
28.178649
 21
21.310763
 31
0.000000
  0
LINE
  8
daiko
 10
10.047724
 20
10.844002
 30
0.000000
 11
28.178649
 21
21.310763
 31
0.000000
  0
LINE
  8
daiko
 10
21.195966
 20
18.709570
 30
0.000000
 11
22.053616
 21
19.204681
 31
0.000000
  0
LINE
  8
daiko
 10
28.178649
 20
8.616039
 30
0.000000
 11
19.307026
 21
13.737518
 31
0.000000
  0
LINE
  8
daiko
 10
28.178649
 20
0.000000
 30
0.000000
 11
28.178649
 21
8.713429
 31
0.000000
  0
LINE
  8
daiko
 10
28.178649
 20
1.697282
 30
0.000000
 11
13.314558
 21
10.278139
 31
0.000000
  0
LINE
  8
daiko
 10
28.178649
 20
8.616039
 30
0.000000
 11
37.050272
 21
13.737518
 31
0.000000
  0
LINE
  8
daiko
 10
28.178649
 20
1.697282
 30
0.000000
 11
43.042740
 21
10.278139
 31
0.000000
  0
LINE
  8
daiko
 10
28.178649
 20
0.000000
 30
0.000000
 11
10.047724
 21
10.466760
 31
0.000000
  0
LINE
  8
daiko
 10
28.178649
 20
0.000000
 30
0.000000
 11
46.309574
 21
10.466760
 31
0.000000
  0
LINE
  8
daiko
 10
28.178649
 20
8.713429
 30
0.000000
 11
19.391377
 21
13.786213
 31
0.000000
  0
LINE
  8
daiko
 10
28.178649
 20
8.713429
 30
0.000000
 11
36.965921
 21
13.786213
 31
0.000000
  0
LINE
  8
daiko
 10
19.867981
 20
17.170587
 30
0.000000
 11
19.837361
 21
16.495440
 31
0.000000
  0
ARC
  8
daiko
 10
28.173837
 20
7.114147
 30
0.000000
 40
13.285434
 50
97.705781
 51
108.374862
  0
LINE
  8
daiko
 10
35.540614
 20
18.170066
 30
0.000000
 11
34.214112
 21
20.017277
 31
0.000000
  0
LINE
  8
daiko
 10
23.549918
 20
20.450561
 30
0.000000
 11
22.437135
 21
21.092957
 31
0.000000
  0
LINE
  8
daiko
 10
22.159564
 20
21.092957
 30
0.000000
 11
22.120709
 21
21.070527
 31
0.000000
  0
LINE
  8
daiko
 10
23.808103
 20
20.549084
 30
0.000000
 11
23.596840
 21
20.671044
 31
0.000000
  0
LINE
  8
daiko
 10
21.808938
 20
20.274545
 30
0.000000
 11
22.136269
 21
20.463509
 31
0.000000
  0
ARC
  8
daiko
 10
30.083649
 20
16.685067
 30
0.000000
 40
5.307009
 50
38.894513
 51
69.505741
  0
ARC
  8
daiko
 10
26.829254
 20
15.631189
 30
0.000000
 40
6.491314
 50
110.757686
 51
126.025562
  0
LINE
  8
daiko
 10
23.936887
 20
20.511328
 30
0.000000
 11
24.184899
 21
20.601381
 31
0.000000
  0
ARC
  8
daiko
 10
28.175362
 20
11.817229
 30
0.000000
 40
10.535194
 50
69.053195
 51
110.251888
  0
LINE
  8
daiko
 10
46.813153
 20
2.454296
 30
0.000000
 11
46.877210
 21
2.414328
 31
0.000000
  0
LINE
  8
daiko
 10
9.571004
 20
27.298573
 30
0.000000
 11
7.120879
 21
25.884146
 31
0.000000
  0
LINE
  8
daiko
 10
7.125665
 20
25.362407
 30
0.000000
 11
7.191001
 21
25.324689
 31
0.000000
  0
LINE
  8
daiko
 10
14.081765
 20
19.892352
 30
0.000000
 11
16.531890
 21
21.306779
 31
0.000000
  0
LINE
  8
daiko
 10
18.346632
 20
16.292331
 30
0.000000
 11
20.796757
 21
17.706758
 31
0.000000
  0
LINE
  8
daiko
 10
23.346057
 20
20.568247
 30
0.000000
 11
23.346057
 21
20.632647
 31
0.000000
  0
LINE
  8
daiko
 10
7.802329
 20
11.798098
 30
0.000000
 11
7.825020
 21
11.662592
 31
0.000000
  0
LINE
  8
daiko
 10
14.495758
 20
2.411394
 30
0.000000
 11
18.536110
 21
5.566519
 31
0.000000
  0
LINE
  8
daiko
 10
3.640246
 20
8.501060
 30
0.000000
 11
14.257454
 21
2.371876
 31
0.000000
  0
LINE
  8
daiko
 10
15.949635
 20
25.568804
 30
0.000000
 11
13.107186
 21
23.349125
 31
0.000000
  0
LINE
  8
daiko
 10
10.917797
 20
21.639423
 30
0.000000
 11
8.662737
 21
19.878438
 31
0.000000
  0
LINE
  8
daiko
 10
23.505400
 20
21.206954
 30
0.000000
 11
15.949635
 21
25.568804
 31
0.000000
  0
LINE
  8
daiko
 10
47.706569
 20
3.922279
 30
0.000000
 11
49.080388
 21
4.442882
 31
0.000000
  0
ARC
  8
daiko
 10
47.540565
 20
4.415842
 30
0.000000
 40
0.520732
 50
249.837213
 51
288.589846
  0
LINE
  8
daiko
 10
43.790682
 20
5.064709
 30
0.000000
 11
47.361074
 21
3.927022
 31
0.000000
  0
ARC
  8
daiko
 10
44.948941
 20
7.868852
 30
0.000000
 40
3.033938
 50
205.579875
 51
247.556781
  0
ARC
  8
daiko
 10
39.493453
 20
4.784536
 30
0.000000
 40
3.246673
 50
33.128262
 51
57.779271
  0
ARC
  8
daiko
 10
39.441303
 20
4.763705
 30
0.000000
 40
3.355634
 50
32.991981
 51
56.649890
  0
ARC
  8
daiko
 10
44.891426
 20
7.843020
 30
0.000000
 40
2.917896
 50
205.411136
 51
247.532742
  0
LINE
  8
daiko
 10
47.346921
 20
4.008850
 30
0.000000
 11
43.776336
 21
5.146599
 31
0.000000
  0
ARC
  8
daiko
 10
47.512168
 20
4.458591
 30
0.000000
 40
0.479138
 50
249.825231
 51
288.587966
  0
LINE
  8
daiko
 10
49.038717
 20
4.525049
 30
0.000000
 11
47.664899
 21
4.004447
 31
0.000000
  0
LINE
  8
daiko
 10
49.279484
 20
3.934518
 30
0.000000
 11
49.279484
 21
4.255308
 31
0.000000
  0
LINE
  8
daiko
 10
49.214148
 20
4.293026
 30
0.000000
 11
49.214148
 21
3.972236
 31
0.000000
  0
ARC
  8
daiko
 10
36.930843
 20
3.259492
 30
0.000000
 40
3.401470
 50
33.653159
 51
57.160517
  0
ARC
  8
daiko
 10
42.498816
 20
6.454425
 30
0.000000
 40
3.033938
 50
205.579875
 51
247.556781
  0
LINE
  8
daiko
 10
41.340557
 20
3.650282
 30
0.000000
 11
44.910950
 21
2.512595
 31
0.000000
  0
ARC
  8
daiko
 10
45.090440
 20
3.001415
 30
0.000000
 40
0.520732
 50
249.837213
 51
288.589846
  0
LINE
  8
daiko
 10
49.006668
 20
4.311930
 30
0.000000
 11
46.783383
 21
3.028455
 31
0.000000
  0
LINE
  8
daiko
 10
45.256445
 20
2.507852
 30
0.000000
 11
46.630263
 21
3.028455
 31
0.000000
  0
ARC
  8
daiko
 10
48.924849
 20
3.950656
 30
0.000000
 40
0.355002
 50
302.605510
 51
357.394505
  0
ARC
  8
daiko
 10
48.859513
 20
3.988374
 30
0.000000
 40
0.355002
 50
302.605510
 51
357.394505
  0
ARC
  8
daiko
 10
46.863601
 20
2.541655
 30
0.000000
 40
0.100880
 50
170.785992
 51
309.203211
  0
LINE
  8
daiko
 10
49.050806
 20
3.689320
 30
0.000000
 11
46.927364
 21
2.463483
 31
0.000000
  0
LINE
  8
daiko
 10
46.764023
 20
2.878599
 30
0.000000
 11
46.764023
 21
2.557809
 31
0.000000
  0
LINE
  8
daiko
 10
49.116143
 20
3.651602
 30
0.000000
 11
46.992701
 21
2.425765
 31
0.000000
  0
ARC
  8
daiko
 10
46.925036
 20
2.520217
 30
0.000000
 40
0.116188
 50
245.692977
 51
305.617488
  0
LINE
  8
daiko
 10
9.768706
 20
27.195145
 30
0.000000
 11
11.142525
 21
25.088364
 31
0.000000
  0
ARC
  8
daiko
 10
12.514769
 20
25.970582
 30
0.000000
 40
1.631368
 50
212.737025
 51
229.740781
  0
LINE
  8
daiko
 10
11.460502
 20
24.725638
 30
0.000000
 11
15.031087
 21
21.740878
 31
0.000000
  0
ARC
  8
daiko
 10
7.600091
 20
9.309581
 30
0.000000
 40
15.687511
 50
34.847653
 51
46.169402
  0
LINE
  8
daiko
 10
20.474428
 20
18.273367
 30
0.000000
 11
20.584385
 21
17.979831
 31
0.000000
  0
LINE
  8
daiko
 10
20.778737
 20
17.862346
 30
0.000000
 11
22.154806
 21
21.375578
 31
0.000000
  0
LINE
  8
daiko
 10
22.154806
 20
21.375578
 30
0.000000
 11
23.278399
 21
20.726942
 31
0.000000
  0
LINE
  8
daiko
 10
23.278399
 20
20.651493
 30
0.000000
 11
22.200344
 21
21.273841
 31
0.000000
  0
LINE
  8
daiko
 10
22.200344
 20
21.273841
 30
0.000000
 11
20.844608
 21
17.812520
 31
0.000000
  0
LINE
  8
daiko
 10
20.517925
 20
18.001110
 30
0.000000
 11
20.424167
 21
18.251401
 31
0.000000
  0
ARC
  8
daiko
 10
7.686880
 20
9.360044
 30
0.000000
 40
15.533664
 50
34.917253
 51
46.174004
  0
ARC
  8
daiko
 10
16.745639
 20
19.125452
 30
0.000000
 40
2.227108
 50
40.327772
 51
93.877194
  0
LINE
  8
daiko
 10
15.016741
 20
21.675552
 30
0.000000
 11
11.446349
 21
24.660152
 31
0.000000
  0
ARC
  8
daiko
 10
12.592508
 20
26.013306
 30
0.000000
 40
1.773332
 50
212.737304
 51
229.734477
  0
LINE
  8
daiko
 10
11.100854
 20
25.054309
 30
0.000000
 11
9.727035
 21
27.161090
 31
0.000000
  0
LINE
  8
daiko
 10
9.593275
 20
27.165668
 30
0.000000
 11
9.593275
 21
26.844878
 31
0.000000
  0
LINE
  8
daiko
 10
9.527939
 20
26.882596
 30
0.000000
 11
9.527939
 21
27.203386
 31
0.000000
  0
LINE
  8
daiko
 10
8.650729
 20
23.639882
 30
0.000000
 11
7.479492
 21
25.435998
 31
0.000000
  0
ARC
  8
daiko
 10
9.173304
 20
26.898734
 30
0.000000
 40
0.355002
 50
302.605510
 51
357.394505
  0
ARC
  8
daiko
 10
9.238640
 20
26.861016
 30
0.000000
 40
0.355002
 50
302.605510
 51
357.394505
  0
LINE
  8
daiko
 10
7.241155
 20
25.373844
 30
0.000000
 11
9.364597
 21
26.599680
 31
0.000000
  0
ARC
  8
daiko
 10
7.177392
 20
25.452016
 30
0.000000
 40
0.100880
 50
170.785992
 51
309.203211
  0
LINE
  8
daiko
 10
7.077814
 20
25.468169
 30
0.000000
 11
7.077814
 21
25.788959
 31
0.000000
  0
LINE
  8
daiko
 10
7.306492
 20
25.336126
 30
0.000000
 11
9.429934
 21
26.561962
 31
0.000000
  0
LINE
  8
daiko
 10
12.566616
 20
20.261125
 30
0.000000
 11
8.996224
 21
23.245725
 31
0.000000
  0
ARC
  8
daiko
 10
7.180194
 20
25.799975
 30
0.000000
 40
0.102971
 50
125.171781
 51
186.140902
  0
ARC
  8
daiko
 10
10.142383
 20
24.598879
 30
0.000000
 40
1.773332
 50
212.737304
 51
229.734477
  0
ARC
  8
daiko
 10
7.238827
 20
25.430578
 30
0.000000
 40
0.116188
 50
245.692977
 51
305.617488
  0
LINE
  8
daiko
 10
16.415625
 20
21.351169
 30
0.000000
 11
16.551592
 21
21.429661
 31
0.000000
  0
ARC
  8
daiko
 10
14.295514
 20
17.711025
 30
0.000000
 40
2.227108
 50
40.327772
 51
93.877194
  0
ARC
  8
daiko
 10
5.236755
 20
7.945617
 30
0.000000
 40
15.533664
 50
34.917253
 51
46.174004
  0
LINE
  8
daiko
 10
18.067800
 20
16.586683
 30
0.000000
 11
17.974042
 21
16.836974
 31
0.000000
  0
LINE
  8
daiko
 10
19.704681
 20
19.961151
 30
0.000000
 11
22.154806
 21
21.375578
 31
0.000000
  0
LINE
  8
daiko
 10
19.524977
 20
19.502349
 30
0.000000
 11
19.704681
 21
19.961151
 31
0.000000
  0
ARC
  8
daiko
 10
23.227211
 20
20.541847
 30
0.000000
 40
0.121006
 50
12.844637
 51
64.974838
  0
ARC
  8
daiko
 10
23.230452
 20
20.621118
 30
0.000000
 40
0.116179
 50
5.694887
 51
65.625422
  0
LINE
  8
daiko
 10
4.562112
 20
8.933771
 30
0.000000
 11
7.940174
 21
11.571712
 31
0.000000
  0
LINE
  8
daiko
 10
7.940174
 20
11.571712
 30
0.000000
 11
7.858503
 21
11.618860
 31
0.000000
  0
ARC
  8
daiko
 10
7.887527
 20
11.674172
 30
0.000000
 40
0.062465
 50
118.979545
 51
242.312797
  0
LINE
  8
daiko
 10
13.246078
 20
15.936960
 30
0.000000
 11
7.857263
 21
11.728815
 31
0.000000
  0
LINE
  8
daiko
 10
13.567798
 20
16.188192
 30
0.000000
 11
13.731139
 21
16.093897
 31
0.000000
  0
LINE
  8
daiko
 10
13.731139
 20
16.093897
 30
0.000000
 11
16.709130
 21
18.419421
 31
0.000000
  0
LINE
  8
daiko
 10
14.372538
 20
2.396417
 30
0.000000
 11
18.476291
 21
5.601052
 31
0.000000
  0
LINE
  8
daiko
 10
4.318339
 20
8.965257
 30
0.000000
 11
3.755329
 21
8.525601
 31
0.000000
  0
ARC
  8
daiko
 10
4.412114
 20
8.841391
 30
0.000000
 40
0.155359
 50
63.908551
 51
127.128000
  0
LINE
  8
daiko
 10
4.562112
 20
8.933771
 30
0.000000
 11
4.480441
 21
8.980918
 31
0.000000
  0
LINE
  8
daiko
 10
13.352033
 20
16.771772
 30
0.000000
 11
16.174905
 21
18.976164
 31
0.000000
  0
LINE
  8
daiko
 10
13.352033
 20
16.771772
 30
0.000000
 11
13.414434
 21
16.399134
 31
0.000000
  0
LINE
  8
daiko
 10
13.092713
 20
16.147901
 30
0.000000
 11
13.030313
 21
16.520540
 31
0.000000
  0
ARC
  8
daiko
 10
13.718272
 20
16.566054
 30
0.000000
 40
0.689464
 50
127.841057
 51
183.785089
  0
LINE
  8
daiko
 10
15.955930
 20
19.188227
 30
0.000000
 11
13.295305
 21
17.110535
 31
0.000000
  0
LINE
  8
daiko
 10
13.731139
 20
16.093897
 30
0.000000
 11
13.708448
 21
16.229403
 31
0.000000
  0
LINE
  8
daiko
 10
13.708448
 20
16.229403
 30
0.000000
 11
13.788878
 21
16.292211
 31
0.000000
  0
LINE
  8
daiko
 10
14.593179
 20
16.920292
 30
0.000000
 11
16.627200
 21
18.508667
 31
0.000000
  0
LINE
  8
daiko
 10
13.482706
 20
16.696336
 30
0.000000
 11
13.352033
 21
16.771772
 31
0.000000
  0
LINE
  8
daiko
 10
13.482706
 20
16.696336
 30
0.000000
 11
16.274683
 21
18.876601
 31
0.000000
  0
ARC
  8
daiko
 10
13.423411
 20
16.227113
 30
0.000000
 40
0.340052
 50
193.470142
 51
238.567881
  0
ARC
  8
daiko
 10
13.745141
 20
16.478351
 30
0.000000
 40
0.340063
 50
193.470772
 51
238.566944
  0
LINE
  8
daiko
 10
13.545107
 20
16.323698
 30
0.000000
 11
13.482706
 21
16.696336
 31
0.000000
  0
LINE
  8
daiko
 10
13.708448
 20
16.229403
 30
0.000000
 11
13.545107
 21
16.323698
 31
0.000000
  0
LINE
  8
daiko
 10
7.834571
 20
11.864320
 30
0.000000
 11
7.857263
 21
11.728815
 31
0.000000
  0
ARC
  8
daiko
 10
7.873899
 20
11.804212
 30
0.000000
 40
0.071831
 50
123.195983
 51
184.882945
  0
LINE
  8
daiko
 10
4.539420
 20
9.069275
 30
0.000000
 11
4.562112
 21
8.933771
 31
0.000000
  0
LINE
  8
daiko
 10
7.833436
 20
11.641585
 30
0.000000
 11
5.424151
 21
9.760165
 31
0.000000
  0
LINE
  8
daiko
 10
4.619851
 20
9.132084
 30
0.000000
 11
4.539420
 21
9.069275
 31
0.000000
  0
ARC
  8
daiko
 10
14.458014
 20
2.486278
 30
0.000000
 40
0.083859
 50
230.532948
 51
296.749490
  0
LINE
  8
daiko
 10
3.603950
 20
8.560613
 30
0.000000
 11
3.571549
 21
8.754100
 31
0.000000
  0
ARC
  8
daiko
 10
4.389422
 20
8.976897
 30
0.000000
 40
0.155358
 50
63.908357
 51
127.127785
  0
LINE
  8
daiko
 10
4.539420
 20
9.069275
 30
0.000000
 11
4.457749
 21
9.116423
 31
0.000000
  0
ARC
  8
daiko
 10
14.296852
 20
2.469235
 30
0.000000
 40
0.105028
 50
247.968935
 51
316.106333
  0
ARC
  8
daiko
 10
20.964658
 20
17.378269
 30
0.000000
 40
3.313548
 50
89.901408
 51
118.079090
  0
ARC
  8
daiko
 10
21.008110
 20
17.379746
 30
0.000000
 40
3.465980
 50
86.409128
 51
117.550213
  0
LINE
  8
daiko
 10
19.405004
 20
20.301808
 30
0.000000
 11
19.012103
 21
20.074991
 31
0.000000
  0
LINE
  8
daiko
 10
17.924069
 20
21.065414
 30
0.000000
 11
15.949635
 21
25.568804
 31
0.000000
  0
LINE
  8
daiko
 10
19.405004
 20
20.452705
 30
0.000000
 11
18.919477
 21
20.172416
 31
0.000000
  0
ARC
  8
daiko
 10
13.814980
 20
16.442506
 30
0.000000
 40
0.083410
 50
271.125060
 51
311.244496
  0
LINE
  8
daiko
 10
13.816617
 20
16.359112
 30
0.000000
 11
13.658205
 21
16.367647
 31
0.000000
  0
LINE
  8
daiko
 10
13.577775
 20
16.304839
 30
0.000000
 11
13.658205
 21
16.367647
 31
0.000000
  0
LINE
  8
daiko
 10
5.293478
 20
9.835601
 30
0.000000
 11
7.802820
 21
11.795156
 31
0.000000
  0
LINE
  8
daiko
 10
5.293478
 20
9.835601
 30
0.000000
 11
5.174232
 21
9.610242
 31
0.000000
  0
ARC
  8
daiko
 10
5.012908
 20
9.693698
 30
0.000000
 40
0.181633
 50
308.952455
 51
332.646763
  0
LINE
  8
daiko
 10
5.127096
 20
9.552448
 30
0.000000
 11
4.700941
 21
9.219663
 31
0.000000
  0
ARC
  8
daiko
 10
4.645950
 20
9.282382
 30
0.000000
 40
0.083413
 50
271.125908
 51
311.243432
  0
LINE
  8
daiko
 10
4.647589
 20
9.198985
 30
0.000000
 11
4.489177
 21
9.207520
 31
0.000000
  0
LINE
  8
daiko
 10
4.392660
 20
9.132150
 30
0.000000
 11
4.489177
 21
9.207520
 31
0.000000
  0
LINE
  8
daiko
 10
14.462506
 20
16.995728
 30
0.000000
 11
16.531330
 21
18.611280
 31
0.000000
  0
LINE
  8
daiko
 10
14.462506
 20
16.995728
 30
0.000000
 11
14.343260
 21
16.770369
 31
0.000000
  0
ARC
  8
daiko
 10
14.181936
 20
16.853825
 30
0.000000
 40
0.181632
 50
308.952114
 51
332.646721
  0
LINE
  8
daiko
 10
14.296123
 20
16.712575
 30
0.000000
 11
13.869970
 21
16.379790
 31
0.000000
  0
LINE
  8
daiko
 10
14.462506
 20
16.995728
 30
0.000000
 11
14.593179
 21
16.920292
 31
0.000000
  0
LINE
  8
daiko
 10
14.593179
 20
16.920292
 30
0.000000
 11
14.473933
 21
16.694933
 31
0.000000
  0
ARC
  8
daiko
 10
14.312609
 20
16.778389
 30
0.000000
 40
0.181632
 50
308.952114
 51
332.646721
  0
ARC
  8
daiko
 10
13.945653
 20
16.367070
 30
0.000000
 40
0.083410
 50
271.125060
 51
311.244496
  0
LINE
  8
daiko
 10
13.658205
 20
16.367647
 30
0.000000
 11
13.788878
 21
16.292211
 31
0.000000
  0
LINE
  8
daiko
 10
13.947290
 20
16.283676
 30
0.000000
 11
13.788878
 21
16.292211
 31
0.000000
  0
LINE
  8
daiko
 10
5.293478
 20
9.835601
 30
0.000000
 11
5.424151
 21
9.760165
 31
0.000000
  0
LINE
  8
daiko
 10
5.424151
 20
9.760165
 30
0.000000
 11
5.304905
 21
9.534806
 31
0.000000
  0
ARC
  8
daiko
 10
5.143581
 20
9.618262
 30
0.000000
 40
0.181633
 50
308.952455
 51
332.646763
  0
ARC
  8
daiko
 10
4.776624
 20
9.206946
 30
0.000000
 40
0.083413
 50
271.125908
 51
311.243432
  0
LINE
  8
daiko
 10
4.489177
 20
9.207520
 30
0.000000
 11
4.619851
 21
9.132084
 31
0.000000
  0
LINE
  8
daiko
 10
4.778263
 20
9.123549
 30
0.000000
 11
4.619851
 21
9.132084
 31
0.000000
  0
LINE
  8
daiko
 10
3.732639
 20
8.661106
 30
0.000000
 11
9.910723
 21
13.485592
 31
0.000000
  0
LINE
  8
daiko
 10
1.067103
 20
10.199887
 30
0.000000
 11
0.000000
 21
16.572295
 31
0.000000
  0
LINE
  8
daiko
 10
6.116249
 20
21.348494
 30
0.000000
 11
6.270753
 21
20.425847
 31
0.000000
  0
LINE
  8
daiko
 10
4.663047
 20
13.756462
 30
0.000000
 11
3.869654
 21
18.494357
 31
0.000000
  0
LINE
  8
daiko
 10
0.718445
 20
16.833501
 30
0.000000
 11
3.280685
 21
18.834362
 31
0.000000
  0
LINE
  8
daiko
 10
2.100808
 20
11.755601
 30
0.000000
 11
4.663047
 21
13.756462
 31
0.000000
  0
LINE
  8
daiko
 10
0.718445
 20
16.833501
 30
0.000000
 11
1.511838
 21
12.095606
 31
0.000000
  0
LINE
  8
daiko
 10
3.280685
 20
18.834362
 30
0.000000
 11
4.074077
 21
14.096467
 31
0.000000
  0
LINE
  8
daiko
 10
4.074077
 20
14.096467
 30
0.000000
 11
1.511838
 21
12.095606
 31
0.000000
  0
LINE
  8
daiko
 10
6.116249
 20
21.348494
 30
0.000000
 11
0.000000
 21
16.572295
 31
0.000000
  0
LINE
  8
daiko
 10
4.663047
 20
13.756462
 30
0.000000
 11
4.074077
 21
14.096467
 31
0.000000
  0
LINE
  8
daiko
 10
3.869654
 20
18.494357
 30
0.000000
 11
3.280685
 21
18.834362
 31
0.000000
  0
LINE
  8
daiko
 10
3.732639
 20
8.661106
 30
0.000000
 11
1.067103
 21
10.199887
 31
0.000000
  0
LINE
  8
daiko
 10
8.859188
 20
19.765029
 30
0.000000
 11
6.116249
 21
21.348494
 31
0.000000
  0
LINE
  8
daiko
 10
8.859188
 20
19.765029
 30
0.000000
 11
9.013692
 21
18.842382
 31
0.000000
  0
LINE
  8
daiko
 10
7.167784
 20
15.069057
 30
0.000000
 11
9.910723
 21
13.485592
 31
0.000000
  0
LINE
  8
daiko
 10
7.167784
 20
15.069057
 30
0.000000
 11
1.067103
 21
10.199887
 31
0.000000
  0
LINE
  8
daiko
 10
1.511838
 20
12.095606
 30
0.000000
 11
2.100808
 21
11.755601
 31
0.000000
  0
LINE
  8
daiko
 10
6.906506
 20
16.629327
 30
0.000000
 11
7.621717
 21
19.217090
 31
0.000000
  0
LINE
  8
daiko
 10
7.621717
 20
19.217090
 30
0.000000
 11
6.270753
 21
20.425847
 31
0.000000
  0
LINE
  8
daiko
 10
7.621717
 20
19.217090
 30
0.000000
 11
10.364655
 21
17.633625
 31
0.000000
  0
LINE
  8
daiko
 10
6.270753
 20
20.425847
 30
0.000000
 11
9.013692
 21
18.842382
 31
0.000000
  0
LINE
  8
daiko
 10
6.906506
 20
16.629327
 30
0.000000
 11
9.649445
 21
15.045862
 31
0.000000
  0
LINE
  8
daiko
 10
9.649445
 20
15.045862
 30
0.000000
 11
9.910723
 21
13.485592
 31
0.000000
  0
LINE
  8
daiko
 10
9.649445
 20
15.045862
 30
0.000000
 11
10.364655
 21
17.633625
 31
0.000000
  0
LINE
  8
daiko
 10
10.364655
 20
17.633625
 30
0.000000
 11
9.013692
 21
18.842382
 31
0.000000
  0
LINE
  8
daiko
 10
6.906506
 20
16.629327
 30
0.000000
 11
7.167784
 21
15.069057
 31
0.000000
  0
ARC
  8
daiko
 10
14.022974
 20
21.979393
 30
0.000000
 40
2.252426
 50
229.716281
 51
251.792994
  0
ARC
  8
daiko
 10
13.637336
 20
20.781255
 30
0.000000
 40
0.993814
 50
251.330133
 51
296.563939
  0
ARC
  8
daiko
 10
9.650778
 20
27.209472
 30
0.000000
 40
0.122990
 50
144.353687
 51
182.836318
  0
ARC
  8
daiko
 10
9.607481
 20
27.235956
 30
0.000000
 40
0.072467
 50
86.120236
 51
141.418155
  0
ARC
  8
daiko
 10
9.599560
 20
27.157127
 30
0.000000
 40
0.151673
 50
51.767735
 51
85.149487
  0
ARC
  8
daiko
 10
9.508692
 20
27.029341
 30
0.000000
 40
0.308379
 50
32.524504
 51
53.199076
  0
ARC
  8
daiko
 10
9.582576
 20
27.068970
 30
0.000000
 40
0.171331
 50
32.525153
 51
53.198684
  0
ARC
  8
daiko
 10
9.633063
 20
27.139966
 30
0.000000
 40
0.084266
 50
51.768443
 51
85.148982
  0
ARC
  8
daiko
 10
9.637559
 20
27.183551
 30
0.000000
 40
0.040464
 50
86.273198
 51
141.266571
  0
ARC
  8
daiko
 10
9.661507
 20
27.169053
 30
0.000000
 40
0.068315
 50
144.350199
 51
182.840136
  0
ARC
  8
daiko
 10
16.318851
 20
23.186900
 30
0.000000
 40
1.936315
 50
228.313139
 51
256.246805
  0
ARC
  8
daiko
 10
16.076020
 20
22.083290
 30
0.000000
 40
0.807052
 50
254.364868
 51
294.884906
  0
ARC
  8
daiko
 10
16.473099
 20
23.393820
 30
0.000000
 40
2.252426
 50
229.716281
 51
251.792994
  0
ARC
  8
daiko
 10
16.093737
 20
22.247442
 30
0.000000
 40
1.044913
 50
251.912641
 51
289.351166
  0
LINE
  8
daiko
 10
16.439976
 20
21.261561
 30
0.000000
 11
16.595046
 21
21.347462
 31
0.000000
  0
ARC
  8
daiko
 10
16.814322
 20
19.995291
 30
0.000000
 40
1.458233
 50
68.261600
 51
100.379669
  0
ARC
  8
daiko
 10
16.287884
 20
18.500881
 30
0.000000
 40
3.042028
 50
44.324289
 51
69.476208
  0
ARC
  8
daiko
 10
18.304828
 20
16.459029
 30
0.000000
 40
0.171860
 50
217.582711
 51
284.078279
  0
ARC
  8
daiko
 10
18.473546
 20
16.624568
 30
0.000000
 40
0.407511
 50
185.334333
 51
221.562636
  0
ARC
  8
daiko
 10
20.865616
 20
18.020078
 30
0.000000
 40
0.348208
 50
183.122537
 51
243.917392
  0
ARC
  8
daiko
 10
20.755126
 20
17.778701
 30
0.000000
 40
0.083121
 50
239.164390
 51
337.964070
  0
LINE
  8
daiko
 10
20.844608
 20
17.812520
 30
0.000000
 11
20.832175
 21
17.747515
 31
0.000000
  0
ARC
  8
daiko
 10
20.808765
 20
17.978036
 30
0.000000
 40
0.224387
 50
179.541498
 51
234.655186
  0
ARC
  8
daiko
 10
20.717647
 20
17.844310
 30
0.000000
 40
0.062671
 50
231.878503
 51
334.660171
  0
LINE
  8
daiko
 10
20.778737
 20
17.862346
 30
0.000000
 11
20.774289
 21
17.817488
 31
0.000000
  0
ARC
  8
daiko
 10
3.674465
 20
8.562752
 30
0.000000
 40
0.070547
 50
181.738038
 51
256.241221
  0
ARC
  8
daiko
 10
3.672786
 20
8.614876
 30
0.000000
 40
0.121587
 50
262.866466
 51
312.756522
  0
ARC
  8
daiko
 10
49.054933
 20
4.347634
 30
0.000000
 40
0.178154
 50
38.146896
 51
95.222168
  0
ARC
  8
daiko
 10
48.954571
 20
4.238529
 30
0.000000
 40
0.325347
 50
2.956076
 51
42.344073
  0
ARC
  8
daiko
 10
49.018274
 20
4.277293
 30
0.000000
 40
0.196504
 50
4.592209
 51
40.707583
  0
ARC
  8
daiko
 10
49.089396
 20
4.344316
 30
0.000000
 40
0.098976
 50
38.147126
 51
95.221720
  0
ARC
  8
daiko
 10
46.588474
 20
2.870367
 30
0.000000
 40
0.175742
 50
2.684655
 51
32.706987
  0
ARC
  8
daiko
 10
46.635846
 20
2.917132
 30
0.000000
 40
0.111463
 50
25.619615
 51
92.870985
  0
ARC
  8
daiko
 10
23.949659
 20
20.793413
 30
0.000000
 40
0.282374
 50
239.913492
 51
292.601833
  0
ARC
  8
daiko
 10
23.747767
 20
21.256928
 30
0.000000
 40
0.787925
 50
293.201485
 51
303.696100
  0
ARC
  8
daiko
 10
23.462182
 20
20.428888
 30
0.000000
 40
0.277078
 50
60.922417
 51
91.011294
  0
ARC
  8
daiko
 10
23.452952
 20
20.429615
 30
0.000000
 40
0.276341
 50
89.100312
 51
119.261850
  0
LINE
  8
daiko
 10
22.298349
 20
20.604790
 30
0.000000
 11
22.298349
 21
21.039436
 31
0.000000
  0
ARC
  8
daiko
 10
22.298349
 20
20.834952
 30
0.000000
 40
0.292964
 50
61.723391
 51
118.276591
  0
ARC
  8
daiko
 10
22.298349
 20
20.145573
 30
0.000000
 40
0.356865
 50
62.987905
 51
117.012048
  0
ARC
  8
daiko
 10
23.930599
 20
21.010308
 30
0.000000
 40
0.676930
 50
235.780592
 51
280.462922
  0
ARC
  8
daiko
 10
23.871765
 20
20.059460
 30
0.000000
 40
0.356015
 50
242.470682
 51
288.687517
  0
ARC
  8
daiko
 10
28.198071
 20
7.756604
 30
0.000000
 40
13.252763
 50
76.362282
 51
87.749693
  0
ARC
  8
daiko
 10
28.198071
 20
7.756604
 30
0.000000
 40
13.252763
 50
92.431191
 51
108.223858
  0
ARC
  8
daiko
 10
28.533424
 20
9.722548
 30
0.000000
 40
11.264017
 50
55.165409
 51
75.662160
  0
LINE
  8
daiko
 10
24.184899
 20
20.601381
 30
0.000000
 11
24.053529
 21
20.344633
 31
0.000000
  0
LINE
  8
daiko
 10
28.178649
 20
18.858997
 30
0.000000
 11
28.178649
 21
21.310763
 31
0.000000
  0
LINE
  8
daiko
 10
10.047724
 20
10.466760
 30
0.000000
 11
10.047724
 21
10.844002
 31
0.000000
  0
ARC
  8
daiko
 10
22.877840
 20
17.572096
 30
0.000000
 40
1.828846
 50
69.878953
 51
116.787283
  0
LINE
  8
daiko
 10
22.870045
 20
19.298183
 30
0.000000
 11
22.870045
 21
18.246171
 31
0.000000
  0
ARC
  8
daiko
 10
21.560273
 20
17.923826
 30
0.000000
 40
1.353909
 50
69.576312
 51
96.139901
  0
ARC
  8
daiko
 10
24.273715
 20
19.896672
 30
0.000000
 40
0.417032
 50
244.649821
 51
284.476716
  0
LINE
  8
daiko
 10
24.234203
 20
19.453120
 30
0.000000
 11
24.234203
 21
19.033682
 31
0.000000
  0
ARC
  8
daiko
 10
23.056633
 20
18.651203
 30
0.000000
 40
1.271584
 50
59.227524
 51
69.258310
  0
ARC
  8
daiko
 10
24.565743
 20
19.302552
 30
0.000000
 40
0.237438
 50
13.582456
 51
75.480630
  0
ARC
  8
daiko
 10
24.555735
 20
19.174059
 30
0.000000
 40
0.365032
 50
79.018476
 51
119.142982
  0
LINE
  8
daiko
 10
23.862866
 20
19.737236
 30
0.000000
 11
23.862866
 21
20.264987
 31
0.000000
  0
ARC
  8
daiko
 10
31.539236
 20
18.600194
 30
0.000000
 40
0.768154
 50
30.315385
 51
89.689992
  0
ARC
  8
daiko
 10
31.858182
 20
18.289220
 30
0.000000
 40
0.877994
 50
32.276867
 51
59.539404
  0
ARC
  8
daiko
 10
31.790680
 20
19.304381
 30
0.000000
 40
0.235419
 50
98.104085
 51
164.334502
  0
ARC
  8
daiko
 10
31.795350
 20
19.136251
 30
0.000000
 40
0.402981
 50
56.600858
 51
95.390568
  0
ARC
  8
daiko
 10
35.320877
 20
16.262966
 30
0.000000
 40
1.129685
 50
15.146833
 51
56.925493
  0
ARC
  8
daiko
 10
36.769678
 20
15.588737
 30
0.000000
 40
0.761172
 50
30.183018
 51
89.822358
  0
ARC
  8
daiko
 10
37.084739
 20
15.271281
 30
0.000000
 40
0.878612
 50
32.087321
 51
59.534562
  0
TEXT
  8
daiko
 10
0.000000
 20
-11.000000
 30
0.000000
 40
3.000000
  1
DDL-4813FW
  7
BIGFONT
  0
TEXT
  8
daiko
 10
0.000000
 20
-15.000000
 30
0.000000
 40
3.000000
  1
LEDﾀﾞｳﾝﾗｲﾄ
  7
BIGFONT
  0
TEXT
  8
daiko
 10
0.000000
 20
-19.000000
 30
0.000000
 40
3.000000
  1
LDE8.4W
  7
BIGFONT
  0
TEXT
  8
daiko
 10
0.000000
 20
-23.000000
 30
0.000000
 40
3.000000
  1
消費電力 8.4W
  7
BIGFONT
  0
TEXT
  8
daiko
 10
0.000000
 20
-27.000000
 30
0.000000
 40
3.000000
  1
光束値 670lm
  7
BIGFONT
  0
TEXT
  8
daiko
 10
0.000000
 20
-31.000000
 30
0.000000
 40
3.000000
  1
色温度 5000K～2700K Ra83
  7
BIGFONT
  0
TEXT
  8
daiko
 10
0.000000
 20
-35.000000
 30
0.000000
 40
3.000000
  1
施工寸法 □100 H=80mm
  7
BIGFONT
  0
TEXT
  8
daiko
 10
0.000000
 20
-39.000000
 30
0.000000
 40
3.000000
  1
枠／白塗装
  7
BIGFONT
  0
ENDSEC
  0
EOF
