  0
SECTION
  2
HEADER
  9
$EXTMIN
 10
0.000000
 20
-40.000000
 30
0.000000
  9
$EXTMAX
 10
49.298894
 20
27.319179
 30
0.000000
  0
ENDSEC
  0
SECTION
  2
TABLES
  0
TABLE
  2
LTYPE
 70
    10
  0
LTYPE
  2
ByBlock
 70
     0
  3

 72
    65
 73
     0
 40
0.000000
  0
LTYPE
  2
ByLayer
 70
     0
  3

 72
    65
 73
     0
 40
0.000000
  0
LTYPE
  2
CENTER_DASH_DASH
 70
     0
  3
Center_Dash_Dash
 72
    65
 73
     6
 40
22.000000
 49
12.000000
 49
-3.000000
 49
0.500000
 49
-3.000000
 49
0.500000
 49
-3.000000
  0
LTYPE
  2
CONTINUOUS
 70
     0
  3
Solid line
 72
    65
 73
     0
 40
0.000000
  0
LTYPE
  2
DASHED
 70
     0
  3
Dashed
 72
    65
 73
     2
 40
15.000000
 49
12.000000
 49
-3.000000
  0
LTYPE
  2
DASH_CENTER
 70
     0
  3
Dash_Center
 72
    65
 73
     4
 40
36.000000
 49
24.000000
 49
-3.000000
 49
6.000000
 49
-3.000000
  0
LTYPE
  2
DOTTED
 70
     0
  3
Dotted
 72
    65
 73
     2
 40
3.500000
 49
0.500000
 49
-3.000000
  0
LTYPE
  2
DOT_CENTER
 70
     0
  3
Dot_Center
 72
    65
 73
     4
 40
2.000000
 49
1.250000
 49
-0.250000
 49
0.250000
 49
-0.250000
  0
LTYPE
  2
LONG_DASHED
 70
     0
  3
Long_Dashed
 72
    65
 73
     2
 40
2.000000
 49
1.500000
 49
-0.500000
  0
LTYPE
  2
PHANTOM
 70
     0
  3
Phantom
 72
    65
 73
     6
 40
2.500000
 49
1.250000
 49
-0.250000
 49
0.250000
 49
-0.250000
 49
0.250000
 49
-0.250000
  0
ENDTAB
  0
TABLE
  2
STYLE
 70
     3
  0
STYLE
  2
BIGFONT
 70
     0
 40
1.000000
 41
1.000000
 50
0.000000
 71
     0
 42
0.000000
  3
txt
  4
bigfont
  0
STYLE
  2
CONVERTER_1
 70
     0
 40
0.000000
 41
0.900000
 50
0.000000
 71
     0
 42
0.000000
  3
txt.shx
  4

  0
STYLE
  2
STANDARD
 70
     0
 40
0.000000
 41
1.000000
 50
0.000000
 71
     0
 42
0.000000
  3
txt
  4

  0
ENDTAB
  0
TABLE
  2
LAYER
 70
     1
  0
LAYER
  2
daiko
 70
     0
 62
     7
  6
CONTINUOUS
  0
ENDTAB
  0
ENDSEC
  0
SECTION
  2
ENTITIES
  0
ARC
  8
daiko
 10
28.184933
 20
7.116949
 30
0.000000
 40
13.290667
 50
56.323699
 51
82.239451
  0
ARC
  8
daiko
 10
28.184933
 20
7.116949
 30
0.000000
 40
13.290667
 50
97.705781
 51
108.374862
  0
ARC
  8
daiko
 10
30.095498
 20
16.691639
 30
0.000000
 40
5.309099
 50
38.894513
 51
69.505741
  0
ARC
  8
daiko
 10
26.839821
 20
15.637345
 30
0.000000
 40
6.493871
 50
110.757686
 51
126.025562
  0
ARC
  8
daiko
 10
28.186459
 20
11.821883
 30
0.000000
 40
10.539343
 50
69.053195
 51
110.251888
  0
ARC
  8
daiko
 10
47.559289
 20
4.417581
 30
0.000000
 40
0.520937
 50
249.837213
 51
288.589846
  0
ARC
  8
daiko
 10
44.966644
 20
7.871951
 30
0.000000
 40
3.035133
 50
205.579875
 51
247.556781
  0
ARC
  8
daiko
 10
39.509008
 20
4.786420
 30
0.000000
 40
3.247952
 50
33.128262
 51
57.779271
  0
ARC
  8
daiko
 10
39.456837
 20
4.765581
 30
0.000000
 40
3.356956
 50
32.991981
 51
56.649890
  0
ARC
  8
daiko
 10
44.909107
 20
7.846109
 30
0.000000
 40
2.919045
 50
205.411136
 51
247.532742
  0
ARC
  8
daiko
 10
47.530881
 20
4.460347
 30
0.000000
 40
0.479327
 50
249.825231
 51
288.587966
  0
ARC
  8
daiko
 10
36.945388
 20
3.260776
 30
0.000000
 40
3.402810
 50
33.653159
 51
57.160517
  0
ARC
  8
daiko
 10
42.515554
 20
6.456967
 30
0.000000
 40
3.035133
 50
205.579875
 51
247.556781
  0
ARC
  8
daiko
 10
45.108199
 20
3.002597
 30
0.000000
 40
0.520937
 50
249.837213
 51
288.589846
  0
ARC
  8
daiko
 10
48.944118
 20
3.952212
 30
0.000000
 40
0.355142
 50
302.605510
 51
357.394505
  0
ARC
  8
daiko
 10
48.878757
 20
3.989945
 30
0.000000
 40
0.355142
 50
302.605510
 51
357.394505
  0
ARC
  8
daiko
 10
46.882059
 20
2.542656
 30
0.000000
 40
0.100920
 50
170.785992
 51
309.203211
  0
ARC
  8
daiko
 10
46.943518
 20
2.521210
 30
0.000000
 40
0.116234
 50
245.692977
 51
305.617488
  0
ARC
  8
daiko
 10
12.519698
 20
25.980811
 30
0.000000
 40
1.632011
 50
212.737025
 51
229.740781
  0
ARC
  8
daiko
 10
7.603084
 20
9.313248
 30
0.000000
 40
15.693690
 50
34.847653
 51
46.169402
  0
ARC
  8
daiko
 10
7.689908
 20
9.363731
 30
0.000000
 40
15.539782
 50
34.917253
 51
46.174004
  0
ARC
  8
daiko
 10
16.752234
 20
19.132985
 30
0.000000
 40
2.227985
 50
40.327772
 51
93.877194
  0
ARC
  8
daiko
 10
12.597468
 20
26.023551
 30
0.000000
 40
1.774030
 50
212.737304
 51
229.734477
  0
ARC
  8
daiko
 10
9.176917
 20
26.909328
 30
0.000000
 40
0.355142
 50
302.605510
 51
357.394505
  0
ARC
  8
daiko
 10
9.242279
 20
26.871595
 30
0.000000
 40
0.355142
 50
302.605510
 51
357.394505
  0
ARC
  8
daiko
 10
7.180219
 20
25.462040
 30
0.000000
 40
0.100920
 50
170.785992
 51
309.203211
  0
ARC
  8
daiko
 10
7.183022
 20
25.810136
 30
0.000000
 40
0.103012
 50
125.171781
 51
186.140902
  0
ARC
  8
daiko
 10
10.146378
 20
24.608567
 30
0.000000
 40
1.774030
 50
212.737304
 51
229.734477
  0
ARC
  8
daiko
 10
7.241678
 20
25.440594
 30
0.000000
 40
0.116234
 50
245.692977
 51
305.617488
  0
ARC
  8
daiko
 10
14.301144
 20
17.718001
 30
0.000000
 40
2.227985
 50
40.327772
 51
93.877194
  0
ARC
  8
daiko
 10
5.238818
 20
7.948746
 30
0.000000
 40
15.539782
 50
34.917253
 51
46.174004
  0
ARC
  8
daiko
 10
23.236359
 20
20.549938
 30
0.000000
 40
0.121054
 50
12.844637
 51
64.974838
  0
ARC
  8
daiko
 10
23.239601
 20
20.629240
 30
0.000000
 40
0.116225
 50
5.694887
 51
65.625422
  0
ARC
  8
daiko
 10
7.890634
 20
11.678770
 30
0.000000
 40
0.062490
 50
118.979545
 51
242.312797
  0
ARC
  8
daiko
 10
4.413852
 20
8.844873
 30
0.000000
 40
0.155420
 50
63.908551
 51
127.128000
  0
ARC
  8
daiko
 10
13.723675
 20
16.572579
 30
0.000000
 40
0.689736
 50
127.841057
 51
183.785089
  0
ARC
  8
daiko
 10
13.428698
 20
16.233504
 30
0.000000
 40
0.340186
 50
193.470142
 51
238.567881
  0
ARC
  8
daiko
 10
13.750555
 20
16.484841
 30
0.000000
 40
0.340197
 50
193.470772
 51
238.566944
  0
ARC
  8
daiko
 10
7.877000
 20
11.808861
 30
0.000000
 40
0.071859
 50
123.195983
 51
184.882945
  0
ARC
  8
daiko
 10
14.463708
 20
2.487257
 30
0.000000
 40
0.083892
 50
230.532948
 51
296.749490
  0
ARC
  8
daiko
 10
4.391151
 20
8.980433
 30
0.000000
 40
0.155419
 50
63.908357
 51
127.127785
  0
ARC
  8
daiko
 10
14.302483
 20
2.470208
 30
0.000000
 40
0.105069
 50
247.968935
 51
316.106333
  0
ARC
  8
daiko
 10
20.972915
 20
17.385114
 30
0.000000
 40
3.314853
 50
89.901408
 51
118.079090
  0
ARC
  8
daiko
 10
21.016384
 20
17.386591
 30
0.000000
 40
3.467345
 50
86.409128
 51
117.550213
  0
ARC
  8
daiko
 10
13.820421
 20
16.448982
 30
0.000000
 40
0.083443
 50
271.125060
 51
311.244496
  0
ARC
  8
daiko
 10
5.014882
 20
9.697516
 30
0.000000
 40
0.181705
 50
308.952455
 51
332.646763
  0
ARC
  8
daiko
 10
4.647780
 20
9.286038
 30
0.000000
 40
0.083446
 50
271.125908
 51
311.243432
  0
ARC
  8
daiko
 10
14.187522
 20
16.860463
 30
0.000000
 40
0.181704
 50
308.952114
 51
332.646721
  0
ARC
  8
daiko
 10
14.318246
 20
16.784997
 30
0.000000
 40
0.181704
 50
308.952114
 51
332.646721
  0
ARC
  8
daiko
 10
13.951146
 20
16.373516
 30
0.000000
 40
0.083443
 50
271.125060
 51
311.244496
  0
ARC
  8
daiko
 10
5.145607
 20
9.622050
 30
0.000000
 40
0.181705
 50
308.952455
 51
332.646763
  0
ARC
  8
daiko
 10
4.778505
 20
9.210572
 30
0.000000
 40
0.083446
 50
271.125908
 51
311.243432
  0
ARC
  8
daiko
 10
14.028497
 20
21.988050
 30
0.000000
 40
2.253313
 50
229.716281
 51
251.792994
  0
ARC
  8
daiko
 10
13.642707
 20
20.789440
 30
0.000000
 40
0.994205
 50
251.330133
 51
296.563939
  0
ARC
  8
daiko
 10
9.654579
 20
27.220189
 30
0.000000
 40
0.123038
 50
144.353687
 51
182.836318
  0
ARC
  8
daiko
 10
9.611265
 20
27.246683
 30
0.000000
 40
0.072496
 50
86.120236
 51
141.418155
  0
ARC
  8
daiko
 10
9.603341
 20
27.167823
 30
0.000000
 40
0.151733
 50
51.767735
 51
85.149487
  0
ARC
  8
daiko
 10
9.512437
 20
27.039987
 30
0.000000
 40
0.308500
 50
32.524504
 51
53.199076
  0
ARC
  8
daiko
 10
9.586350
 20
27.079631
 30
0.000000
 40
0.171398
 50
32.525153
 51
53.198684
  0
ARC
  8
daiko
 10
9.636857
 20
27.150655
 30
0.000000
 40
0.084299
 50
51.768443
 51
85.148982
  0
ARC
  8
daiko
 10
9.641355
 20
27.194257
 30
0.000000
 40
0.040480
 50
86.273198
 51
141.266571
  0
ARC
  8
daiko
 10
9.665312
 20
27.179754
 30
0.000000
 40
0.068342
 50
144.350199
 51
182.840136
  0
ARC
  8
daiko
 10
16.325278
 20
23.196032
 30
0.000000
 40
1.937078
 50
228.313139
 51
256.246805
  0
ARC
  8
daiko
 10
16.082352
 20
22.091988
 30
0.000000
 40
0.807370
 50
254.364868
 51
294.884906
  0
ARC
  8
daiko
 10
16.479587
 20
23.403034
 30
0.000000
 40
2.253313
 50
229.716281
 51
251.792994
  0
ARC
  8
daiko
 10
16.100076
 20
22.256204
 30
0.000000
 40
1.045325
 50
251.912641
 51
289.351166
  0
ARC
  8
daiko
 10
16.820944
 20
20.003166
 30
0.000000
 40
1.458807
 50
68.261600
 51
100.379669
  0
ARC
  8
daiko
 10
16.294299
 20
18.508168
 30
0.000000
 40
3.043226
 50
44.324289
 51
69.476208
  0
ARC
  8
daiko
 10
18.312037
 20
16.465511
 30
0.000000
 40
0.171928
 50
217.582711
 51
284.078279
  0
ARC
  8
daiko
 10
18.480822
 20
16.631116
 30
0.000000
 40
0.407672
 50
185.334333
 51
221.562636
  0
ARC
  8
daiko
 10
20.873834
 20
18.027175
 30
0.000000
 40
0.348345
 50
183.122537
 51
243.917392
  0
ARC
  8
daiko
 10
20.763301
 20
17.785703
 30
0.000000
 40
0.083154
 50
239.164390
 51
337.964070
  0
ARC
  8
daiko
 10
20.816961
 20
17.985117
 30
0.000000
 40
0.224475
 50
179.541498
 51
234.655186
  0
ARC
  8
daiko
 10
20.725807
 20
17.851338
 30
0.000000
 40
0.062696
 50
231.878503
 51
334.660171
  0
ARC
  8
daiko
 10
3.675912
 20
8.566124
 30
0.000000
 40
0.070575
 50
181.738038
 51
256.241221
  0
ARC
  8
daiko
 10
3.674233
 20
8.618269
 30
0.000000
 40
0.121635
 50
262.866466
 51
312.756522
  0
ARC
  8
daiko
 10
49.074254
 20
4.349346
 30
0.000000
 40
0.178224
 50
38.146896
 51
95.222168
  0
ARC
  8
daiko
 10
48.973852
 20
4.240198
 30
0.000000
 40
0.325475
 50
2.956076
 51
42.344073
  0
ARC
  8
daiko
 10
49.037580
 20
4.278978
 30
0.000000
 40
0.196581
 50
4.592209
 51
40.707583
  0
ARC
  8
daiko
 10
49.108730
 20
4.346027
 30
0.000000
 40
0.099015
 50
38.147126
 51
95.221720
  0
ARC
  8
daiko
 10
46.606823
 20
2.871498
 30
0.000000
 40
0.175811
 50
2.684655
 51
32.706987
  0
ARC
  8
daiko
 10
46.654214
 20
2.918281
 30
0.000000
 40
0.111507
 50
25.619615
 51
92.870985
  0
ARC
  8
daiko
 10
23.959092
 20
20.801603
 30
0.000000
 40
0.282485
 50
239.913492
 51
292.601833
  0
ARC
  8
daiko
 10
23.757120
 20
21.265300
 30
0.000000
 40
0.788235
 50
293.201485
 51
303.696100
  0
ARC
  8
daiko
 10
23.471423
 20
20.436934
 30
0.000000
 40
0.277187
 50
60.922417
 51
91.011294
  0
ARC
  8
daiko
 10
23.462189
 20
20.437661
 30
0.000000
 40
0.276450
 50
89.100312
 51
119.261850
  0
ARC
  8
daiko
 10
22.307131
 20
20.843158
 30
0.000000
 40
0.293079
 50
61.723391
 51
118.276591
  0
ARC
  8
daiko
 10
22.307131
 20
20.153507
 30
0.000000
 40
0.357006
 50
62.987905
 51
117.012048
  0
ARC
  8
daiko
 10
23.940024
 20
21.018583
 30
0.000000
 40
0.677197
 50
235.780592
 51
280.462922
  0
ARC
  8
daiko
 10
23.881167
 20
20.067361
 30
0.000000
 40
0.356155
 50
242.470682
 51
288.687517
  0
ARC
  8
daiko
 10
28.209177
 20
7.759659
 30
0.000000
 40
13.257983
 50
76.362282
 51
87.749693
  0
ARC
  8
daiko
 10
28.209177
 20
7.759659
 30
0.000000
 40
13.257983
 50
92.431191
 51
108.223858
  0
ARC
  8
daiko
 10
28.544662
 20
9.726377
 30
0.000000
 40
11.268453
 50
55.165409
 51
75.662160
  0
ARC
  8
daiko
 10
22.886851
 20
17.579017
 30
0.000000
 40
1.829566
 50
69.878953
 51
116.787283
  0
ARC
  8
daiko
 10
21.568765
 20
17.930885
 30
0.000000
 40
1.354442
 50
69.576312
 51
96.139901
  0
ARC
  8
daiko
 10
24.283275
 20
19.904508
 30
0.000000
 40
0.417196
 50
244.649821
 51
284.476716
  0
ARC
  8
daiko
 10
23.065714
 20
18.658549
 30
0.000000
 40
1.272085
 50
59.227524
 51
69.258310
  0
ARC
  8
daiko
 10
24.575418
 20
19.310154
 30
0.000000
 40
0.237532
 50
13.582456
 51
75.480630
  0
ARC
  8
daiko
 10
24.565406
 20
19.181611
 30
0.000000
 40
0.365176
 50
79.018476
 51
119.142982
  0
ARC
  8
daiko
 10
31.551658
 20
18.607520
 30
0.000000
 40
0.768457
 50
30.315385
 51
89.689992
  0
ARC
  8
daiko
 10
31.870730
 20
18.296423
 30
0.000000
 40
0.878340
 50
32.276867
 51
59.539404
  0
ARC
  8
daiko
 10
31.803201
 20
19.311984
 30
0.000000
 40
0.235512
 50
98.104085
 51
164.334502
  0
ARC
  8
daiko
 10
31.807873
 20
19.143788
 30
0.000000
 40
0.403140
 50
56.600858
 51
95.390568
  0
ARC
  8
daiko
 10
35.334788
 20
16.269371
 30
0.000000
 40
1.130130
 50
15.146833
 51
56.925493
  0
ARC
  8
daiko
 10
36.784160
 20
15.594877
 30
0.000000
 40
0.761472
 50
30.183018
 51
89.822358
  0
ARC
  8
daiko
 10
37.099345
 20
15.277296
 30
0.000000
 40
0.878958
 50
32.087321
 51
59.534562
  0
LINE
  8
daiko
 10
32.316001
 20
19.053533
 30
0.000000
 11
31.938008
 21
19.271743
 31
0.000000
  0
LINE
  8
daiko
 10
24.880134
 20
19.408557
 30
0.000000
 11
24.692572
 21
19.516834
 31
0.000000
  0
LINE
  8
daiko
 10
31.686922
 20
19.516834
 30
0.000000
 11
31.499360
 21
19.408557
 31
0.000000
  0
LINE
  8
daiko
 10
37.544992
 20
16.034900
 30
0.000000
 11
37.167000
 21
16.253111
 31
0.000000
  0
LINE
  8
daiko
 10
23.516229
 20
19.296921
 30
0.000000
 11
23.516229
 21
19.848185
 31
0.000000
  0
LINE
  8
daiko
 10
24.104653
 20
19.527485
 30
0.000000
 11
22.469276
 21
20.471568
 31
0.000000
  0
LINE
  8
daiko
 10
35.951532
 20
17.216376
 30
0.000000
 11
32.029788
 21
19.480351
 31
0.000000
  0
LINE
  8
daiko
 10
23.516229
 20
19.848185
 30
0.000000
 11
22.745224
 21
19.403093
 31
0.000000
  0
LINE
  8
daiko
 10
35.554612
 20
18.177222
 30
0.000000
 11
35.951532
 21
17.216376
 31
0.000000
  0
LINE
  8
daiko
 10
19.549885
 20
16.989199
 30
0.000000
 11
19.519253
 21
16.313786
 31
0.000000
  0
LINE
  8
daiko
 10
46.327813
 20
10.470882
 30
0.000000
 11
46.327813
 21
10.848273
 31
0.000000
  0
LINE
  8
daiko
 10
13.319802
 20
10.282187
 30
0.000000
 11
28.189747
 21
18.866425
 31
0.000000
  0
LINE
  8
daiko
 10
13.319802
 20
10.282187
 30
0.000000
 11
10.051681
 21
10.470882
 31
0.000000
  0
LINE
  8
daiko
 10
10.051681
 20
10.470882
 30
0.000000
 11
28.189747
 21
20.941766
 31
0.000000
  0
LINE
  8
daiko
 10
43.059693
 20
10.282187
 30
0.000000
 11
28.189747
 21
18.866425
 31
0.000000
  0
LINE
  8
daiko
 10
46.327813
 20
10.470882
 30
0.000000
 11
28.189747
 21
20.941766
 31
0.000000
  0
LINE
  8
daiko
 10
43.059693
 20
10.282187
 30
0.000000
 11
46.327813
 21
10.470882
 31
0.000000
  0
LINE
  8
daiko
 10
46.327813
 20
10.848273
 30
0.000000
 11
28.189747
 21
21.319156
 31
0.000000
  0
LINE
  8
daiko
 10
10.051681
 20
10.848273
 30
0.000000
 11
28.189747
 21
21.319156
 31
0.000000
  0
LINE
  8
daiko
 10
21.204314
 20
18.716939
 30
0.000000
 11
22.062302
 21
19.212245
 31
0.000000
  0
LINE
  8
daiko
 10
28.189747
 20
8.619432
 30
0.000000
 11
19.314630
 21
13.742929
 31
0.000000
  0
LINE
  8
daiko
 10
28.189747
 20
0.000000
 30
0.000000
 11
28.189747
 21
8.716861
 31
0.000000
  0
LINE
  8
daiko
 10
28.189747
 20
1.697950
 30
0.000000
 11
13.319802
 21
10.282187
 31
0.000000
  0
LINE
  8
daiko
 10
28.189747
 20
8.619432
 30
0.000000
 11
37.064864
 21
13.742929
 31
0.000000
  0
LINE
  8
daiko
 10
28.189747
 20
1.697950
 30
0.000000
 11
43.059693
 21
10.282187
 31
0.000000
  0
LINE
  8
daiko
 10
28.189747
 20
0.000000
 30
0.000000
 11
10.051681
 21
10.470882
 31
0.000000
  0
LINE
  8
daiko
 10
28.189747
 20
0.000000
 30
0.000000
 11
46.327813
 21
10.470882
 31
0.000000
  0
LINE
  8
daiko
 10
28.189747
 20
8.716861
 30
0.000000
 11
19.399014
 21
13.791643
 31
0.000000
  0
LINE
  8
daiko
 10
28.189747
 20
8.716861
 30
0.000000
 11
36.980480
 21
13.791643
 31
0.000000
  0
LINE
  8
daiko
 10
19.875806
 20
17.177350
 30
0.000000
 11
19.845174
 21
16.501937
 31
0.000000
  0
LINE
  8
daiko
 10
35.554612
 20
18.177222
 30
0.000000
 11
34.227587
 21
20.025161
 31
0.000000
  0
LINE
  8
daiko
 10
23.559193
 20
20.458616
 30
0.000000
 11
22.445972
 21
21.101265
 31
0.000000
  0
LINE
  8
daiko
 10
22.168292
 20
21.101265
 30
0.000000
 11
22.129421
 21
21.078826
 31
0.000000
  0
LINE
  8
daiko
 10
23.817480
 20
20.557177
 30
0.000000
 11
23.606134
 21
20.679185
 31
0.000000
  0
LINE
  8
daiko
 10
21.817528
 20
20.282530
 30
0.000000
 11
22.144987
 21
20.471569
 31
0.000000
  0
LINE
  8
daiko
 10
23.946315
 20
20.519407
 30
0.000000
 11
24.194424
 21
20.609495
 31
0.000000
  0
LINE
  8
daiko
 10
46.831591
 20
2.455263
 30
0.000000
 11
46.895673
 21
2.415279
 31
0.000000
  0
LINE
  8
daiko
 10
9.574774
 20
27.309325
 30
0.000000
 11
7.123684
 21
25.894341
 31
0.000000
  0
LINE
  8
daiko
 10
7.128471
 20
25.372396
 30
0.000000
 11
7.193833
 21
25.334663
 31
0.000000
  0
LINE
  8
daiko
 10
14.087311
 20
19.900187
 30
0.000000
 11
16.538401
 21
21.315171
 31
0.000000
  0
LINE
  8
daiko
 10
18.353858
 20
16.298748
 30
0.000000
 11
20.804948
 21
17.713732
 31
0.000000
  0
LINE
  8
daiko
 10
23.355252
 20
20.576348
 30
0.000000
 11
23.355252
 21
20.640773
 31
0.000000
  0
LINE
  8
daiko
 10
7.805402
 20
11.802745
 30
0.000000
 11
7.828102
 21
11.667185
 31
0.000000
  0
LINE
  8
daiko
 10
14.501467
 20
2.412344
 30
0.000000
 11
18.543411
 21
5.568711
 31
0.000000
  0
LINE
  8
daiko
 10
3.641680
 20
8.504408
 30
0.000000
 11
14.263069
 21
2.372810
 31
0.000000
  0
LINE
  8
daiko
 10
15.955917
 20
25.578874
 30
0.000000
 11
13.112348
 21
23.358321
 31
0.000000
  0
LINE
  8
daiko
 10
10.922097
 20
21.647946
 30
0.000000
 11
8.666149
 21
19.886267
 31
0.000000
  0
LINE
  8
daiko
 10
23.514658
 20
21.215306
 30
0.000000
 11
15.955917
 21
25.578874
 31
0.000000
  0
LINE
  8
daiko
 10
47.725359
 20
3.923824
 30
0.000000
 11
49.099719
 21
4.444632
 31
0.000000
  0
LINE
  8
daiko
 10
43.807929
 20
5.066704
 30
0.000000
 11
47.379727
 21
3.928569
 31
0.000000
  0
LINE
  8
daiko
 10
47.365569
 20
4.010429
 30
0.000000
 11
43.793578
 21
5.148626
 31
0.000000
  0
LINE
  8
daiko
 10
49.058031
 20
4.526831
 30
0.000000
 11
47.683672
 21
4.006024
 31
0.000000
  0
LINE
  8
daiko
 10
49.298893
 20
3.936068
 30
0.000000
 11
49.298893
 21
4.256984
 31
0.000000
  0
LINE
  8
daiko
 10
49.233531
 20
4.294717
 30
0.000000
 11
49.233531
 21
3.973800
 31
0.000000
  0
LINE
  8
daiko
 10
41.356839
 20
3.651720
 30
0.000000
 11
44.928638
 21
2.513585
 31
0.000000
  0
LINE
  8
daiko
 10
49.025970
 20
4.313628
 30
0.000000
 11
46.801809
 21
3.029648
 31
0.000000
  0
LINE
  8
daiko
 10
45.274270
 20
2.508840
 30
0.000000
 11
46.648629
 21
3.029648
 31
0.000000
  0
LINE
  8
daiko
 10
49.070125
 20
3.690773
 30
0.000000
 11
46.945847
 21
2.464453
 31
0.000000
  0
LINE
  8
daiko
 10
46.782441
 20
2.879733
 30
0.000000
 11
46.782441
 21
2.558816
 31
0.000000
  0
LINE
  8
daiko
 10
49.135488
 20
3.653040
 30
0.000000
 11
47.011209
 21
2.426720
 31
0.000000
  0
LINE
  8
daiko
 10
9.772553
 20
27.205856
 30
0.000000
 11
11.146914
 21
25.098245
 31
0.000000
  0
LINE
  8
daiko
 10
11.465016
 20
24.735376
 30
0.000000
 11
15.037007
 21
21.749441
 31
0.000000
  0
LINE
  8
daiko
 10
20.482492
 20
18.280564
 30
0.000000
 11
20.592492
 21
17.986912
 31
0.000000
  0
LINE
  8
daiko
 10
20.786921
 20
17.869381
 30
0.000000
 11
22.163532
 21
21.383997
 31
0.000000
  0
LINE
  8
daiko
 10
22.163532
 20
21.383997
 30
0.000000
 11
23.287567
 21
20.735105
 31
0.000000
  0
LINE
  8
daiko
 10
23.287567
 20
20.659627
 30
0.000000
 11
22.209088
 21
21.282220
 31
0.000000
  0
LINE
  8
daiko
 10
22.209088
 20
21.282220
 30
0.000000
 11
20.852818
 21
17.819536
 31
0.000000
  0
LINE
  8
daiko
 10
20.526006
 20
18.008200
 30
0.000000
 11
20.432211
 21
18.258589
 31
0.000000
  0
LINE
  8
daiko
 10
15.022655
 20
21.684089
 30
0.000000
 11
11.450857
 21
24.669865
 31
0.000000
  0
LINE
  8
daiko
 10
11.105226
 20
25.064177
 30
0.000000
 11
9.730866
 21
27.171788
 31
0.000000
  0
LINE
  8
daiko
 10
9.597053
 20
27.176367
 30
0.000000
 11
9.597053
 21
26.855451
 31
0.000000
  0
LINE
  8
daiko
 10
9.531692
 20
26.893184
 30
0.000000
 11
9.531692
 21
27.214100
 31
0.000000
  0
LINE
  8
daiko
 10
8.654136
 20
23.649193
 30
0.000000
 11
7.482438
 21
25.446016
 31
0.000000
  0
LINE
  8
daiko
 10
7.244007
 20
25.383838
 30
0.000000
 11
9.368285
 21
26.610156
 31
0.000000
  0
LINE
  8
daiko
 10
7.080602
 20
25.478200
 30
0.000000
 11
7.080602
 21
25.799116
 31
0.000000
  0
LINE
  8
daiko
 10
7.309370
 20
25.346105
 30
0.000000
 11
9.433648
 21
26.572424
 31
0.000000
  0
LINE
  8
daiko
 10
12.571565
 20
20.269105
 30
0.000000
 11
8.999767
 21
23.254880
 31
0.000000
  0
LINE
  8
daiko
 10
16.422090
 20
21.359578
 30
0.000000
 11
16.558111
 21
21.438101
 31
0.000000
  0
LINE
  8
daiko
 10
18.074916
 20
16.593216
 30
0.000000
 11
17.981121
 21
16.843605
 31
0.000000
  0
LINE
  8
daiko
 10
19.712442
 20
19.969013
 30
0.000000
 11
22.163532
 21
21.383997
 31
0.000000
  0
LINE
  8
daiko
 10
19.532667
 20
19.510030
 30
0.000000
 11
19.712442
 21
19.969013
 31
0.000000
  0
LINE
  8
daiko
 10
4.563909
 20
8.937290
 30
0.000000
 11
7.943301
 21
11.576270
 31
0.000000
  0
LINE
  8
daiko
 10
7.943301
 20
11.576270
 30
0.000000
 11
7.861598
 21
11.623436
 31
0.000000
  0
LINE
  8
daiko
 10
13.251295
 20
15.943237
 30
0.000000
 11
7.860358
 21
11.733434
 31
0.000000
  0
LINE
  8
daiko
 10
13.573142
 20
16.194568
 30
0.000000
 11
13.736547
 21
16.100236
 31
0.000000
  0
LINE
  8
daiko
 10
13.736547
 20
16.100236
 30
0.000000
 11
16.715711
 21
18.426676
 31
0.000000
  0
LINE
  8
daiko
 10
14.378199
 20
2.397361
 30
0.000000
 11
18.483568
 21
5.603258
 31
0.000000
  0
LINE
  8
daiko
 10
4.320040
 20
8.968788
 30
0.000000
 11
3.756808
 21
8.528959
 31
0.000000
  0
LINE
  8
daiko
 10
4.563909
 20
8.937290
 30
0.000000
 11
4.482206
 21
8.984455
 31
0.000000
  0
LINE
  8
daiko
 10
13.357292
 20
16.778378
 30
0.000000
 11
16.181276
 21
18.983638
 31
0.000000
  0
LINE
  8
daiko
 10
13.357292
 20
16.778378
 30
0.000000
 11
13.419717
 21
16.405593
 31
0.000000
  0
LINE
  8
daiko
 10
13.097870
 20
16.154261
 30
0.000000
 11
13.035445
 21
16.527047
 31
0.000000
  0
LINE
  8
daiko
 10
15.962214
 20
19.195784
 30
0.000000
 11
13.300541
 21
17.117274
 31
0.000000
  0
LINE
  8
daiko
 10
13.736547
 20
16.100236
 30
0.000000
 11
13.713847
 21
16.235795
 31
0.000000
  0
LINE
  8
daiko
 10
13.713847
 20
16.235795
 30
0.000000
 11
13.794309
 21
16.298628
 31
0.000000
  0
LINE
  8
daiko
 10
14.598927
 20
16.926956
 30
0.000000
 11
16.633749
 21
18.515957
 31
0.000000
  0
LINE
  8
daiko
 10
13.488016
 20
16.702912
 30
0.000000
 11
13.357292
 21
16.778378
 31
0.000000
  0
LINE
  8
daiko
 10
13.488016
 20
16.702912
 30
0.000000
 11
16.281093
 21
18.884036
 31
0.000000
  0
LINE
  8
daiko
 10
13.550442
 20
16.330127
 30
0.000000
 11
13.488016
 21
16.702912
 31
0.000000
  0
LINE
  8
daiko
 10
13.713847
 20
16.235795
 30
0.000000
 11
13.550442
 21
16.330127
 31
0.000000
  0
LINE
  8
daiko
 10
7.837657
 20
11.868993
 30
0.000000
 11
7.860358
 21
11.733434
 31
0.000000
  0
LINE
  8
daiko
 10
4.541208
 20
9.072847
 30
0.000000
 11
4.563909
 21
8.937290
 31
0.000000
  0
LINE
  8
daiko
 10
7.836521
 20
11.646170
 30
0.000000
 11
5.426287
 21
9.764009
 31
0.000000
  0
LINE
  8
daiko
 10
4.621671
 20
9.135681
 30
0.000000
 11
4.541208
 21
9.072847
 31
0.000000
  0
LINE
  8
daiko
 10
3.605369
 20
8.563985
 30
0.000000
 11
3.572956
 21
8.757548
 31
0.000000
  0
LINE
  8
daiko
 10
4.541208
 20
9.072847
 30
0.000000
 11
4.459505
 21
9.120014
 31
0.000000
  0
LINE
  8
daiko
 10
19.412647
 20
20.309804
 30
0.000000
 11
19.019591
 21
20.082898
 31
0.000000
  0
LINE
  8
daiko
 10
17.931128
 20
21.073711
 30
0.000000
 11
15.955917
 21
25.578874
 31
0.000000
  0
LINE
  8
daiko
 10
19.412647
 20
20.460760
 30
0.000000
 11
18.926929
 21
20.180361
 31
0.000000
  0
LINE
  8
daiko
 10
13.822059
 20
16.365555
 30
0.000000
 11
13.663584
 21
16.374093
 31
0.000000
  0
LINE
  8
daiko
 10
13.583123
 20
16.311261
 30
0.000000
 11
13.663584
 21
16.374093
 31
0.000000
  0
LINE
  8
daiko
 10
5.295563
 20
9.839475
 30
0.000000
 11
7.805893
 21
11.799802
 31
0.000000
  0
LINE
  8
daiko
 10
5.295563
 20
9.839475
 30
0.000000
 11
5.176270
 21
9.614027
 31
0.000000
  0
LINE
  8
daiko
 10
5.129115
 20
9.556210
 30
0.000000
 11
4.702792
 21
9.223294
 31
0.000000
  0
LINE
  8
daiko
 10
4.649419
 20
9.202608
 30
0.000000
 11
4.490945
 21
9.211146
 31
0.000000
  0
LINE
  8
daiko
 10
4.394390
 20
9.135747
 30
0.000000
 11
4.490945
 21
9.211146
 31
0.000000
  0
LINE
  8
daiko
 10
14.468202
 20
17.002422
 30
0.000000
 11
16.537841
 21
18.618610
 31
0.000000
  0
LINE
  8
daiko
 10
14.468202
 20
17.002422
 30
0.000000
 11
14.348909
 21
16.776974
 31
0.000000
  0
LINE
  8
daiko
 10
14.301754
 20
16.719157
 30
0.000000
 11
13.875433
 21
16.386241
 31
0.000000
  0
LINE
  8
daiko
 10
14.468202
 20
17.002422
 30
0.000000
 11
14.598927
 21
16.926956
 31
0.000000
  0
LINE
  8
daiko
 10
14.598927
 20
16.926956
 30
0.000000
 11
14.479634
 21
16.701508
 31
0.000000
  0
LINE
  8
daiko
 10
13.663584
 20
16.374093
 30
0.000000
 11
13.794309
 21
16.298628
 31
0.000000
  0
LINE
  8
daiko
 10
13.952783
 20
16.290089
 30
0.000000
 11
13.794309
 21
16.298628
 31
0.000000
  0
LINE
  8
daiko
 10
5.295563
 20
9.839475
 30
0.000000
 11
5.426287
 21
9.764009
 31
0.000000
  0
LINE
  8
daiko
 10
5.426287
 20
9.764009
 30
0.000000
 11
5.306994
 21
9.538561
 31
0.000000
  0
LINE
  8
daiko
 10
4.490945
 20
9.211146
 30
0.000000
 11
4.621671
 21
9.135681
 31
0.000000
  0
LINE
  8
daiko
 10
4.780145
 20
9.127142
 30
0.000000
 11
4.621671
 21
9.135681
 31
0.000000
  0
LINE
  8
daiko
 10
3.734109
 20
8.664517
 30
0.000000
 11
9.914626
 21
13.490903
 31
0.000000
  0
LINE
  8
daiko
 10
1.067523
 20
10.203904
 30
0.000000
 11
0.000000
 21
16.578822
 31
0.000000
  0
LINE
  8
daiko
 10
6.118658
 20
21.356902
 30
0.000000
 11
6.273223
 21
20.433892
 31
0.000000
  0
LINE
  8
daiko
 10
4.664884
 20
13.761880
 30
0.000000
 11
3.871178
 21
18.501641
 31
0.000000
  0
LINE
  8
daiko
 10
0.718728
 20
16.840131
 30
0.000000
 11
3.281977
 21
18.841780
 31
0.000000
  0
LINE
  8
daiko
 10
2.101635
 20
11.760231
 30
0.000000
 11
4.664884
 21
13.761880
 31
0.000000
  0
LINE
  8
daiko
 10
0.718728
 20
16.840131
 30
0.000000
 11
1.512433
 21
12.100370
 31
0.000000
  0
LINE
  8
daiko
 10
3.281977
 20
18.841780
 30
0.000000
 11
4.075682
 21
14.102019
 31
0.000000
  0
LINE
  8
daiko
 10
4.075682
 20
14.102019
 30
0.000000
 11
1.512433
 21
12.100370
 31
0.000000
  0
LINE
  8
daiko
 10
6.118658
 20
21.356902
 30
0.000000
 11
0.000000
 21
16.578822
 31
0.000000
  0
LINE
  8
daiko
 10
4.664884
 20
13.761880
 30
0.000000
 11
4.075682
 21
14.102019
 31
0.000000
  0
LINE
  8
daiko
 10
3.871178
 20
18.501641
 30
0.000000
 11
3.281977
 21
18.841780
 31
0.000000
  0
LINE
  8
daiko
 10
3.734109
 20
8.664517
 30
0.000000
 11
1.067523
 21
10.203904
 31
0.000000
  0
LINE
  8
daiko
 10
8.862677
 20
19.772814
 30
0.000000
 11
6.118658
 21
21.356902
 31
0.000000
  0
LINE
  8
daiko
 10
8.862677
 20
19.772814
 30
0.000000
 11
9.017242
 21
18.849803
 31
0.000000
  0
LINE
  8
daiko
 10
7.170607
 20
15.074992
 30
0.000000
 11
9.914626
 21
13.490903
 31
0.000000
  0
LINE
  8
daiko
 10
7.170607
 20
15.074992
 30
0.000000
 11
1.067523
 21
10.203904
 31
0.000000
  0
LINE
  8
daiko
 10
1.512433
 20
12.100370
 30
0.000000
 11
2.101635
 21
11.760231
 31
0.000000
  0
LINE
  8
daiko
 10
6.909226
 20
16.635877
 30
0.000000
 11
7.624719
 21
19.224659
 31
0.000000
  0
LINE
  8
daiko
 10
7.624719
 20
19.224659
 30
0.000000
 11
6.273223
 21
20.433892
 31
0.000000
  0
LINE
  8
daiko
 10
7.624719
 20
19.224659
 30
0.000000
 11
10.368737
 21
17.640570
 31
0.000000
  0
LINE
  8
daiko
 10
6.273223
 20
20.433892
 30
0.000000
 11
9.017242
 21
18.849803
 31
0.000000
  0
LINE
  8
daiko
 10
6.909226
 20
16.635877
 30
0.000000
 11
9.653245
 21
15.051788
 31
0.000000
  0
LINE
  8
daiko
 10
9.653245
 20
15.051788
 30
0.000000
 11
9.914626
 21
13.490903
 31
0.000000
  0
LINE
  8
daiko
 10
9.653245
 20
15.051788
 30
0.000000
 11
10.368737
 21
17.640570
 31
0.000000
  0
LINE
  8
daiko
 10
10.368737
 20
17.640570
 30
0.000000
 11
9.017242
 21
18.849803
 31
0.000000
  0
LINE
  8
daiko
 10
6.909226
 20
16.635877
 30
0.000000
 11
7.170607
 21
15.074992
 31
0.000000
  0
LINE
  8
daiko
 10
16.446451
 20
21.269935
 30
0.000000
 11
16.601582
 21
21.355870
 31
0.000000
  0
LINE
  8
daiko
 10
20.852818
 20
17.819536
 30
0.000000
 11
20.840380
 21
17.754505
 31
0.000000
  0
LINE
  8
daiko
 10
20.786921
 20
17.869381
 30
0.000000
 11
20.782471
 21
17.824506
 31
0.000000
  0
LINE
  8
daiko
 10
22.307131
 20
20.612905
 30
0.000000
 11
22.307131
 21
21.047723
 31
0.000000
  0
LINE
  8
daiko
 10
24.194424
 20
20.609495
 30
0.000000
 11
24.063003
 21
20.352646
 31
0.000000
  0
LINE
  8
daiko
 10
28.189747
 20
18.866425
 30
0.000000
 11
28.189747
 21
21.319156
 31
0.000000
  0
LINE
  8
daiko
 10
10.051681
 20
10.470882
 30
0.000000
 11
10.051681
 21
10.848273
 31
0.000000
  0
LINE
  8
daiko
 10
22.879053
 20
19.305784
 30
0.000000
 11
22.879053
 21
18.253357
 31
0.000000
  0
LINE
  8
daiko
 10
24.243748
 20
19.460782
 30
0.000000
 11
24.243748
 21
19.041179
 31
0.000000
  0
LINE
  8
daiko
 10
23.872265
 20
19.745010
 30
0.000000
 11
23.872265
 21
20.272968
 31
0.000000
  0
TEXT
  8
daiko
 10
0.000000
 20
-11.000000
 30
0.000000
 40
3.000000
  1
DDL-4813FB
  7
BIGFONT
  0
TEXT
  8
daiko
 10
0.000000
 20
-15.000000
 30
0.000000
 40
3.000000
  1
LEDﾀﾞｳﾝﾗｲﾄ
  7
BIGFONT
  0
TEXT
  8
daiko
 10
0.000000
 20
-19.000000
 30
0.000000
 40
3.000000
  1
LED8.4W
  7
BIGFONT
  0
TEXT
  8
daiko
 10
0.000000
 20
-23.000000
 30
0.000000
 40
3.000000
  1
消費電力 8.4W
  7
BIGFONT
  0
TEXT
  8
daiko
 10
0.000000
 20
-27.000000
 30
0.000000
 40
3.000000
  1
光束値 570lm
  7
BIGFONT
  0
TEXT
  8
daiko
 10
0.000000
 20
-31.000000
 30
0.000000
 40
3.000000
  1
色温度 5000K/3500K/2700K Ra83
  7
BIGFONT
  0
TEXT
  8
daiko
 10
0.000000
 20
-35.000000
 30
0.000000
 40
3.000000
  1
施工寸法 □100 H=80mm
  7
BIGFONT
  0
TEXT
  8
daiko
 10
0.000000
 20
-39.000000
 30
0.000000
 40
3.000000
  1
枠／黒塗装
  7
BIGFONT
  0
ENDSEC
  0
EOF
