  0
SECTION
  2
HEADER
  9
$EXTMIN
 10
0.000000
 20
-40.000000
 30
0.000000
  9
$EXTMAX
 10
45.444493
 20
26.866952
 30
0.000000
  0
ENDSEC
  0
SECTION
  2
TABLES
  0
TABLE
  2
LTYPE
 70
    10
  0
LTYPE
  2
BYBLOCK
 70
    64
  3

 72
    65
 73
     0
 40
0.000000
  0
LTYPE
  2
BYLAYER
 70
    64
  3

 72
    65
 73
     0
 40
0.000000
  0
LTYPE
  2
CENTER_DASH_DASH
 70
    64
  3
Center_Dash_Dash
 72
    65
 73
     6
 40
22.000000
 49
12.000000
 49
-3.000000
 49
0.500000
 49
-3.000000
 49
0.500000
 49
-3.000000
  0
LTYPE
  2
CONTINUOUS
 70
    64
  3
Solid line
 72
    65
 73
     0
 40
0.000000
  0
LTYPE
  2
DASHED
 70
    64
  3
Dashed
 72
    65
 73
     2
 40
15.000000
 49
12.000000
 49
-3.000000
  0
LTYPE
  2
DASH_CENTER
 70
    64
  3
Dash_Center
 72
    65
 73
     4
 40
36.000000
 49
24.000000
 49
-3.000000
 49
6.000000
 49
-3.000000
  0
LTYPE
  2
DOTTED
 70
    64
  3
Dotted
 72
    65
 73
     2
 40
3.500000
 49
0.500000
 49
-3.000000
  0
LTYPE
  2
DOT_CENTER
 70
    64
  3
Dot_Center
 72
    65
 73
     4
 40
2.000000
 49
1.250000
 49
-0.250000
 49
0.250000
 49
-0.250000
  0
LTYPE
  2
LONG_DASHED
 70
    64
  3
Long_Dashed
 72
    65
 73
     2
 40
2.000000
 49
1.500000
 49
-0.500000
  0
LTYPE
  2
PHANTOM
 70
    64
  3
Phantom
 72
    65
 73
     6
 40
2.500000
 49
1.250000
 49
-0.250000
 49
0.250000
 49
-0.250000
 49
0.250000
 49
-0.250000
  0
ENDTAB
  0
TABLE
  2
STYLE
 70
     3
  0
STYLE
  2
BIGFONT
 70
     0
 40
1.000000
 41
1.000000
 50
0.000000
 71
     0
 42
0.000000
  3
txt
  4
bigfont
  0
STYLE
  2
CONVERTER_1
 70
     0
 40
0.000000
 41
0.900000
 50
0.000000
 71
     0
 42
0.000000
  3
txt.shx
  4

  0
STYLE
  2
STANDARD
 70
     0
 40
0.000000
 41
1.000000
 50
0.000000
 71
     0
 42
0.000000
  3
txt
  4

  0
ENDTAB
  0
TABLE
  2
LAYER
 70
     1
  0
LAYER
  2
daiko
 70
     0
 62
     7
  6
CONTINUOUS
  0
ENDTAB
  0
ENDSEC
  0
SECTION
  2
ENTITIES
  0
ARC
  8
daiko
 10
29.813417
 20
16.841789
 30
0.000000
 40
0.486229
 50
144.966927
 51
182.344461
  0
ARC
  8
daiko
 10
29.939590
 20
16.968625
 30
0.000000
 40
0.459096
 50
164.404129
 51
202.691178
  0
ARC
  8
daiko
 10
28.494716
 20
17.276991
 30
0.000000
 40
0.322845
 50
247.102514
 51
296.542257
  0
ARC
  8
daiko
 10
29.179604
 20
16.295433
 30
0.000000
 40
0.857668
 50
65.645080
 51
96.821517
  0
ARC
  8
daiko
 10
29.173060
 20
16.198417
 30
0.000000
 40
0.953391
 50
95.738394
 51
124.068792
  0
ARC
  8
daiko
 10
20.097542
 20
17.596670
 30
0.000000
 40
0.305929
 50
241.977340
 51
289.180859
  0
ARC
  8
daiko
 10
20.180241
 20
18.085716
 30
0.000000
 40
0.244840
 50
227.684971
 51
288.368893
  0
ARC
  8
daiko
 10
19.735067
 20
17.913262
 30
0.000000
 40
0.257024
 50
61.683312
 51
118.479109
  0
ARC
  8
daiko
 10
18.717578
 20
18.221130
 30
0.000000
 40
0.289705
 50
60.360170
 51
125.201526
  0
ARC
  8
daiko
 10
18.718767
 20
17.679919
 30
0.000000
 40
0.311885
 50
62.898750
 51
117.101226
  0
ARC
  8
daiko
 10
19.332284
 20
17.307147
 30
0.000000
 40
0.317137
 50
242.988510
 51
292.920039
  0
ARC
  8
daiko
 10
23.842048
 20
6.621509
 30
0.000000
 40
11.281175
 50
88.629780
 51
112.880603
  0
ARC
  8
daiko
 10
23.934898
 20
6.769081
 30
0.000000
 40
11.131782
 50
66.525723
 51
89.089387
  0
ARC
  8
daiko
 10
23.865766
 20
6.999746
 30
0.000000
 40
11.437674
 50
82.428190
 51
108.396772
  0
ARC
  8
daiko
 10
24.241001
 20
8.803884
 30
0.000000
 40
9.600761
 50
60.228297
 51
83.229307
  0
ARC
  8
daiko
 10
23.020966
 20
13.180995
 30
0.000000
 40
6.321991
 50
99.263220
 51
125.565840
  0
ARC
  8
daiko
 10
23.869670
 20
10.012173
 30
0.000000
 40
9.591700
 50
76.052468
 51
101.220210
  0
ARC
  8
daiko
 10
24.812819
 20
13.317028
 30
0.000000
 40
6.158097
 50
57.180216
 51
77.157519
  0
ARC
  8
daiko
 10
26.466163
 20
15.669699
 30
0.000000
 40
3.286839
 50
26.200993
 51
59.172958
  0
ARC
  8
daiko
 10
42.401179
 20
1.505137
 30
0.000000
 40
0.144758
 50
350.792827
 51
116.856872
  0
ARC
  8
daiko
 10
42.724618
 20
1.120324
 30
0.000000
 40
0.180734
 50
182.610309
 51
297.383514
  0
ARC
  8
daiko
 10
45.035585
 20
2.718097
 30
0.000000
 40
0.409331
 50
302.605510
 51
357.394505
  0
ARC
  8
daiko
 10
45.069859
 20
3.050027
 30
0.000000
 40
0.375133
 50
2.955974
 51
42.344621
  0
ARC
  8
daiko
 10
45.196788
 20
3.201846
 30
0.000000
 40
0.181037
 50
33.859352
 51
99.509713
  0
ARC
  8
daiko
 10
40.479433
 20
1.666593
 30
0.000000
 40
0.600432
 50
249.837326
 51
288.589505
  0
ARC
  8
daiko
 10
43.406711
 20
3.303778
 30
0.000000
 40
0.552476
 50
249.825664
 51
288.587532
  0
ARC
  8
daiko
 10
37.491194
 20
5.648035
 30
0.000000
 40
3.498246
 50
219.404343
 51
247.556789
  0
ARC
  8
daiko
 10
40.199303
 20
7.210582
 30
0.000000
 40
3.302169
 50
205.184078
 51
250.539400
  0
ARC
  8
daiko
 10
34.048979
 20
3.777102
 30
0.000000
 40
3.756670
 50
32.678451
 51
39.077842
  0
ARC
  8
daiko
 10
11.786572
 20
20.949011
 30
0.000000
 40
1.017417
 50
261.407391
 51
293.165902
  0
ARC
  8
daiko
 10
17.587713
 20
15.254262
 30
0.000000
 40
3.038359
 50
86.409128
 51
117.550213
  0
ARC
  8
daiko
 10
1.683499
 20
6.815132
 30
0.000000
 40
14.712934
 50
32.171265
 51
49.509310
  0
ARC
  8
daiko
 10
12.504585
 20
19.546348
 30
0.000000
 40
0.565090
 50
82.853352
 51
124.216937
  0
ARC
  8
daiko
 10
12.505299
 20
17.540055
 30
0.000000
 40
2.567936
 50
75.599552
 51
88.447161
  0
ARC
  8
daiko
 10
12.505299
 20
17.540055
 30
0.000000
 40
2.567936
 50
40.327746
 51
75.599552
  0
ARC
  8
daiko
 10
1.047973
 20
5.171029
 30
0.000000
 40
19.412063
 50
35.028753
 51
46.285497
  0
ARC
  8
daiko
 10
12.981943
 20
23.571250
 30
0.000000
 40
3.955659
 50
230.032743
 51
239.416190
  0
ARC
  8
daiko
 10
11.881589
 20
21.784706
 30
0.000000
 40
1.858185
 50
240.596875
 51
262.360496
  0
ARC
  8
daiko
 10
9.946137
 20
16.659858
 30
0.000000
 40
1.863940
 50
46.169449
 51
103.640241
  0
ARC
  8
daiko
 10
8.920654
 20
20.219020
 30
0.000000
 40
1.843389
 50
227.980848
 51
288.532909
  0
ARC
  8
daiko
 10
4.891516
 20
23.851137
 30
0.000000
 40
2.044743
 50
212.737437
 51
229.734443
  0
ARC
  8
daiko
 10
1.534364
 20
24.862160
 30
0.000000
 40
0.183092
 50
197.677284
 51
298.457688
  0
ARC
  8
daiko
 10
3.849448
 20
26.459447
 30
0.000000
 40
0.409331
 50
302.605510
 51
357.394505
  0
ARC
  8
daiko
 10
4.329328
 20
26.794047
 30
0.000000
 40
0.072905
 50
33.730154
 51
166.778180
  0
ARC
  8
daiko
 10
7.716601
 20
25.482024
 30
0.000000
 40
2.044743
 50
212.737437
 51
229.734443
  0
ARC
  8
daiko
 10
14.496963
 20
8.176807
 30
0.000000
 40
4.836041
 50
154.187128
 51
206.890441
  0
ARC
  8
daiko
 10
17.610340
 20
6.380661
 30
0.000000
 40
8.424921
 50
125.862780
 51
152.410081
  0
ARC
  8
daiko
 10
21.797855
 20
0.048142
 30
0.000000
 40
16.013299
 50
105.853426
 51
124.731250
  0
ARC
  8
daiko
 10
23.730841
 20
-6.490738
 30
0.000000
 40
22.831629
 50
90.486956
 51
106.037091
  0
ARC
  8
daiko
 10
18.196451
 20
10.418930
 30
0.000000
 40
9.155417
 50
208.933921
 51
243.393017
  0
ARC
  8
daiko
 10
22.679875
 20
18.583333
 30
0.000000
 40
18.466546
 50
242.300642
 51
258.563916
  0
ARC
  8
daiko
 10
23.495714
 20
20.975645
 30
0.000000
 40
20.975645
 50
257.675293
 51
270.112222
  0
ARC
  8
daiko
 10
16.786766
 20
7.913396
 30
0.000000
 40
3.855609
 50
150.611501
 51
207.611756
  0
ARC
  8
daiko
 10
19.965832
 20
5.584307
 30
0.000000
 40
7.782683
 50
118.799861
 51
147.154401
  0
ARC
  8
daiko
 10
22.507067
 20
1.159520
 30
0.000000
 40
12.884754
 50
99.912552
 51
119.223451
  0
ARC
  8
daiko
 10
23.781072
 20
-4.027207
 30
0.000000
 40
18.216965
 50
90.768312
 51
101.051555
  0
ARC
  8
daiko
 10
19.092014
 20
9.309001
 30
0.000000
 40
6.547303
 50
209.084073
 51
238.774758
  0
ARC
  8
daiko
 10
22.552086
 20
14.771561
 30
0.000000
 40
13.012868
 50
238.215478
 51
255.816540
  0
ARC
  8
daiko
 10
23.824842
 20
20.163539
 30
0.000000
 40
18.552543
 50
256.085918
 51
269.110397
  0
ARC
  8
daiko
 10
19.279026
 20
10.905530
 30
0.000000
 40
2.470684
 50
146.418200
 51
207.349839
  0
ARC
  8
daiko
 10
20.501843
 20
10.177082
 30
0.000000
 40
3.892954
 50
126.891113
 51
147.441219
  0
ARC
  8
daiko
 10
21.383899
 20
12.362276
 30
0.000000
 40
5.020185
 50
211.083216
 51
248.224098
  0
ARC
  8
daiko
 10
23.708698
 20
17.609067
 30
0.000000
 40
10.757121
 50
247.092366
 51
268.761418
  0
ARC
  8
daiko
 10
15.029763
 20
8.582489
 30
0.000000
 40
5.371831
 50
147.828458
 51
182.679535
  0
ARC
  8
daiko
 10
18.225288
 20
6.219998
 30
0.000000
 40
9.339395
 50
124.263628
 51
145.998293
  0
ARC
  8
daiko
 10
21.606927
 20
1.026917
 30
0.000000
 40
15.535651
 50
105.823145
 51
123.788099
  0
ARC
  8
daiko
 10
23.780392
 20
-6.423334
 30
0.000000
 40
23.296309
 50
90.599114
 51
105.969864
  0
ARC
  8
daiko
 10
23.293204
 20
-6.423334
 30
0.000000
 40
23.296309
 50
74.030136
 51
89.400886
  0
ARC
  8
daiko
 10
25.466669
 20
1.026917
 30
0.000000
 40
15.535651
 50
56.211901
 51
74.176855
  0
ARC
  8
daiko
 10
28.848308
 20
6.219998
 30
0.000000
 40
9.339395
 50
34.001707
 51
55.736372
  0
ARC
  8
daiko
 10
32.043833
 20
8.582489
 30
0.000000
 40
5.371831
 50
357.320465
 51
32.171542
  0
ARC
  8
daiko
 10
23.243653
 20
17.609067
 30
0.000000
 40
10.757121
 50
271.238582
 51
292.907634
  0
ARC
  8
daiko
 10
25.568453
 20
12.362276
 30
0.000000
 40
5.020185
 50
291.775902
 51
328.916784
  0
ARC
  8
daiko
 10
26.450508
 20
10.177082
 30
0.000000
 40
3.892954
 50
32.558781
 51
55.142146
  0
ARC
  8
daiko
 10
27.673325
 20
10.905530
 30
0.000000
 40
2.470684
 50
332.650161
 51
33.581800
  0
ARC
  8
daiko
 10
23.248753
 20
20.163539
 30
0.000000
 40
18.552543
 50
270.889603
 51
283.914082
  0
ARC
  8
daiko
 10
24.521510
 20
14.771561
 30
0.000000
 40
13.012868
 50
284.183460
 51
301.784522
  0
ARC
  8
daiko
 10
27.981582
 20
9.309001
 30
0.000000
 40
6.547303
 50
301.225242
 51
330.915927
  0
ARC
  8
daiko
 10
23.292523
 20
-4.027207
 30
0.000000
 40
18.216965
 50
78.948445
 51
89.231688
  0
ARC
  8
daiko
 10
24.566529
 20
1.159520
 30
0.000000
 40
12.884754
 50
60.776549
 51
80.087448
  0
ARC
  8
daiko
 10
27.107764
 20
5.584307
 30
0.000000
 40
7.782683
 50
32.845599
 51
61.200139
  0
ARC
  8
daiko
 10
30.286830
 20
7.913396
 30
0.000000
 40
3.855609
 50
332.388244
 51
29.388499
  0
ARC
  8
daiko
 10
23.577882
 20
20.975645
 30
0.000000
 40
20.975645
 50
269.887778
 51
282.324707
  0
ARC
  8
daiko
 10
24.393720
 20
18.583333
 30
0.000000
 40
18.466546
 50
281.436084
 51
297.699358
  0
ARC
  8
daiko
 10
28.877145
 20
10.418930
 30
0.000000
 40
9.155417
 50
296.606983
 51
331.066079
  0
ARC
  8
daiko
 10
23.342755
 20
-6.490738
 30
0.000000
 40
22.831629
 50
73.962909
 51
89.513044
  0
ARC
  8
daiko
 10
25.275740
 20
0.048142
 30
0.000000
 40
16.013299
 50
55.268750
 51
74.146574
  0
ARC
  8
daiko
 10
29.463256
 20
6.380661
 30
0.000000
 40
8.424921
 50
27.589919
 51
54.137220
  0
ARC
  8
daiko
 10
32.576633
 20
8.176807
 30
0.000000
 40
4.836041
 50
333.109559
 51
25.812872
  0
ARC
  8
daiko
 10
27.885489
 20
11.070807
 30
0.000000
 40
2.594219
 50
332.650161
 51
33.581800
  0
ARC
  8
daiko
 10
26.601531
 20
10.305936
 30
0.000000
 40
4.087602
 50
32.558781
 51
40.872335
  0
ARC
  8
daiko
 10
25.675373
 20
12.600390
 30
0.000000
 40
5.271194
 50
291.775902
 51
328.916784
  0
ARC
  8
daiko
 10
21.281591
 20
12.600390
 30
0.000000
 40
5.271194
 50
211.083216
 51
248.224098
  0
ARC
  8
daiko
 10
19.071475
 20
11.070807
 30
0.000000
 40
2.594219
 50
146.418200
 51
207.349839
  0
ARC
  8
daiko
 10
20.355433
 20
10.305936
 30
0.000000
 40
4.087602
 50
140.638959
 51
147.441219
  0
LINE
  8
daiko
 10
18.145986
 20
17.276904
 30
0.000000
 11
18.145986
 21
16.181344
 31
0.000000
  0
LINE
  8
daiko
 10
19.315030
 20
16.897796
 30
0.000000
 11
19.315030
 21
16.441017
 31
0.000000
  0
LINE
  8
daiko
 10
29.516029
 20
16.791522
 30
0.000000
 11
29.917121
 21
15.911470
 31
0.000000
  0
LINE
  8
daiko
 10
29.327594
 20
16.821898
 30
0.000000
 11
29.327594
 21
16.077869
 31
0.000000
  0
LINE
  8
daiko
 10
28.493355
 20
16.885170
 30
0.000000
 11
28.493355
 21
16.285176
 31
0.000000
  0
LINE
  8
daiko
 10
30.094993
 20
15.857124
 30
0.000000
 11
29.564444
 21
17.060894
 31
0.000000
  0
LINE
  8
daiko
 10
29.682244
 20
17.000827
 30
0.000000
 11
30.217287
 21
15.818403
 31
0.000000
  0
LINE
  8
daiko
 10
29.533296
 20
17.076776
 30
0.000000
 11
29.682244
 21
17.000827
 31
0.000000
  0
LINE
  8
daiko
 10
18.550576
 20
18.457857
 30
0.000000
 11
18.453855
 21
18.404773
 31
0.000000
  0
LINE
  8
daiko
 10
19.612508
 20
18.139184
 30
0.000000
 11
19.612508
 21
18.049815
 31
0.000000
  0
LINE
  8
daiko
 10
20.015413
 20
17.904668
 30
0.000000
 11
20.071820
 21
18.018967
 31
0.000000
  0
LINE
  8
daiko
 10
19.953810
 20
17.326608
 30
0.000000
 11
20.015413
 21
17.904668
 31
0.000000
  0
LINE
  8
daiko
 10
18.703543
 20
18.046204
 30
0.000000
 11
18.703543
 21
18.457738
 31
0.000000
  0
LINE
  8
daiko
 10
20.256086
 20
17.852884
 30
0.000000
 11
20.198055
 21
17.307725
 31
0.000000
  0
LINE
  8
daiko
 10
20.372560
 20
18.078422
 30
0.000000
 11
20.256086
 21
17.852884
 31
0.000000
  0
LINE
  8
daiko
 10
20.108457
 20
17.982312
 30
0.000000
 11
20.372560
 21
18.078422
 31
0.000000
  0
LINE
  8
daiko
 10
19.856985
 20
18.139531
 30
0.000000
 11
20.108457
 21
17.982312
 31
0.000000
  0
LINE
  8
daiko
 10
19.898699
 20
17.873790
 30
0.000000
 11
19.856985
 21
18.139531
 31
0.000000
  0
LINE
  8
daiko
 10
19.898699
 20
17.873790
 30
0.000000
 11
18.860850
 21
18.472928
 31
0.000000
  0
LINE
  8
daiko
 10
18.576683
 20
17.957560
 30
0.000000
 11
18.188970
 21
17.733738
 31
0.000000
  0
LINE
  8
daiko
 10
19.953810
 20
17.326608
 30
0.000000
 11
18.860850
 21
17.957560
 31
0.000000
  0
LINE
  8
daiko
 10
19.188250
 20
17.024605
 30
0.000000
 11
18.146450
 21
17.626023
 31
0.000000
  0
LINE
  8
daiko
 10
36.541397
 20
5.410846
 30
0.000000
 11
37.043705
 21
5.700822
 31
0.000000
  0
LINE
  8
daiko
 10
36.381457
 20
2.545092
 30
0.000000
 11
38.861150
 21
3.976588
 31
0.000000
  0
LINE
  8
daiko
 10
43.350866
 20
2.660623
 30
0.000000
 11
40.644367
 21
1.114511
 31
0.000000
  0
LINE
  8
daiko
 10
42.412466
 20
1.657732
 30
0.000000
 11
45.214926
 21
3.285653
 31
0.000000
  0
LINE
  8
daiko
 10
45.444492
 20
3.069372
 30
0.000000
 11
45.444492
 21
2.699489
 31
0.000000
  0
LINE
  8
daiko
 10
43.582815
 20
2.780120
 30
0.000000
 11
45.166878
 21
3.380395
 31
0.000000
  0
LINE
  8
daiko
 10
42.798601
 20
0.965508
 30
0.000000
 11
45.247009
 21
2.378944
 31
0.000000
  0
LINE
  8
daiko
 10
42.544072
 20
1.481975
 30
0.000000
 11
42.544072
 21
1.112093
 31
0.000000
  0
LINE
  8
daiko
 10
40.670842
 20
1.097488
 30
0.000000
 11
42.389841
 21
1.654766
 31
0.000000
  0
LINE
  8
daiko
 10
36.155678
 20
2.414752
 30
0.000000
 11
40.272472
 21
1.102957
 31
0.000000
  0
LINE
  8
daiko
 10
39.099158
 20
4.097064
 30
0.000000
 11
43.216175
 21
2.785197
 31
0.000000
  0
LINE
  8
daiko
 10
18.592933
 20
18.757102
 30
0.000000
 11
19.612508
 21
18.139184
 31
0.000000
  0
LINE
  8
daiko
 10
16.182393
 20
17.948089
 30
0.000000
 11
15.835075
 21
17.747587
 31
0.000000
  0
LINE
  8
daiko
 10
16.480902
 20
17.537852
 30
0.000000
 11
18.592933
 21
18.757102
 31
0.000000
  0
LINE
  8
daiko
 10
16.308573
 20
17.168624
 30
0.000000
 11
16.480902
 21
17.537852
 31
0.000000
  0
LINE
  8
daiko
 10
18.592933
 20
18.757102
 30
0.000000
 11
17.509800
 21
16.013191
 31
0.000000
  0
LINE
  8
daiko
 10
17.100639
 20
15.894661
 30
0.000000
 11
16.943815
 21
16.313310
 31
0.000000
  0
LINE
  8
daiko
 10
13.134665
 20
22.412087
 30
0.000000
 11
14.462978
 21
19.201918
 31
0.000000
  0
LINE
  8
daiko
 10
19.775558
 20
18.610054
 30
0.000000
 11
13.134665
 21
22.412087
 31
0.000000
  0
LINE
  8
daiko
 10
10.582309
 20
20.421485
 30
0.000000
 11
13.134665
 21
22.412087
 31
0.000000
  0
LINE
  8
daiko
 10
10.441026
 20
20.539587
 30
0.000000
 11
6.395019
 21
23.921768
 31
0.000000
  0
LINE
  8
daiko
 10
9.447698
 20
18.524798
 30
0.000000
 11
11.823888
 21
19.854135
 31
0.000000
  0
LINE
  8
daiko
 10
12.744954
 20
16.516402
 30
0.000000
 11
10.783334
 21
15.093307
 31
0.000000
  0
LINE
  8
daiko
 10
10.783334
 20
13.989482
 30
0.000000
 11
10.783334
 21
15.093307
 31
0.000000
  0
LINE
  8
daiko
 10
13.405747
 20
15.706663
 30
0.000000
 11
10.926475
 21
13.908027
 31
0.000000
  0
LINE
  8
daiko
 10
10.783334
 20
13.989482
 30
0.000000
 11
10.926475
 21
13.908027
 31
0.000000
  0
LINE
  8
daiko
 10
10.783334
 20
13.993276
 30
0.000000
 11
2.340131
 21
7.513532
 31
0.000000
  0
LINE
  8
daiko
 10
11.763784
 20
2.042812
 30
0.000000
 11
2.331611
 21
7.518479
 31
0.000000
  0
LINE
  8
daiko
 10
12.914079
 20
2.941082
 30
0.000000
 11
11.763784
 21
2.042812
 31
0.000000
  0
LINE
  8
daiko
 10
3.826315
 20
12.538214
 30
0.000000
 11
1.223037
 21
10.290940
 31
0.000000
  0
LINE
  8
daiko
 10
3.826315
 20
12.538214
 30
0.000000
 11
4.401279
 21
12.373149
 31
0.000000
  0
LINE
  8
daiko
 10
3.043798
 20
17.153136
 30
0.000000
 11
3.826315
 21
12.538214
 31
0.000000
  0
LINE
  8
daiko
 10
3.595274
 20
16.997069
 30
0.000000
 11
3.043798
 21
17.153136
 31
0.000000
  0
LINE
  8
daiko
 10
4.401279
 20
12.373149
 30
0.000000
 11
3.595274
 21
16.997069
 31
0.000000
  0
LINE
  8
daiko
 10
1.758124
 20
10.047380
 30
0.000000
 11
4.401279
 21
12.373149
 31
0.000000
  0
LINE
  8
daiko
 10
1.223037
 20
10.290940
 30
0.000000
 11
1.758124
 21
10.047380
 31
0.000000
  0
LINE
  8
daiko
 10
0.488780
 20
15.096991
 30
0.000000
 11
1.223037
 21
10.290940
 31
0.000000
  0
LINE
  8
daiko
 10
0.488780
 20
15.096991
 30
0.000000
 11
3.043798
 21
17.153136
 31
0.000000
  0
LINE
  8
daiko
 10
4.858088
 20
17.616298
 30
0.000000
 11
7.135443
 21
16.602952
 31
0.000000
  0
LINE
  8
daiko
 10
5.465452
 20
14.141152
 30
0.000000
 11
7.648547
 21
13.725905
 31
0.000000
  0
LINE
  8
daiko
 10
7.886774
 20
12.023296
 30
0.000000
 11
5.668387
 21
12.589746
 31
0.000000
  0
LINE
  8
daiko
 10
6.235138
 20
16.162845
 30
0.000000
 11
8.409040
 21
15.795963
 31
0.000000
  0
LINE
  8
daiko
 10
8.409040
 20
15.795963
 30
0.000000
 11
7.135443
 21
16.602952
 31
0.000000
  0
LINE
  8
daiko
 10
7.648547
 20
13.725905
 30
0.000000
 11
8.409040
 21
15.795963
 31
0.000000
  0
LINE
  8
daiko
 10
7.886774
 20
12.023296
 30
0.000000
 11
7.648547
 21
13.725905
 31
0.000000
  0
LINE
  8
daiko
 10
2.737409
 20
8.026786
 30
0.000000
 11
7.886774
 21
12.023296
 31
0.000000
  0
LINE
  8
daiko
 10
5.668387
 20
12.589746
 30
0.000000
 11
1.055528
 21
8.736885
 31
0.000000
  0
LINE
  8
daiko
 10
5.465452
 20
14.141152
 30
0.000000
 11
5.668387
 21
12.589746
 31
0.000000
  0
LINE
  8
daiko
 10
6.235138
 20
16.162845
 30
0.000000
 11
5.465452
 21
14.141152
 31
0.000000
  0
LINE
  8
daiko
 10
4.858088
 20
17.616298
 30
0.000000
 11
6.235138
 21
16.162845
 31
0.000000
  0
LINE
  8
daiko
 10
4.644324
 20
18.588481
 30
0.000000
 11
4.858088
 21
17.616298
 31
0.000000
  0
LINE
  8
daiko
 10
6.979679
 20
17.372608
 30
0.000000
 11
7.135443
 21
16.602952
 31
0.000000
  0
LINE
  8
daiko
 10
4.644324
 20
18.588481
 30
0.000000
 11
6.979679
 21
17.372608
 31
0.000000
  0
LINE
  8
daiko
 10
0.000000
 20
14.976229
 30
0.000000
 11
4.644324
 21
18.588481
 31
0.000000
  0
LINE
  8
daiko
 10
1.055528
 20
8.736885
 30
0.000000
 11
0.000000
 21
14.976229
 31
0.000000
  0
LINE
  8
daiko
 10
2.737409
 20
8.026786
 30
0.000000
 11
1.055528
 21
8.736885
 31
0.000000
  0
LINE
  8
daiko
 10
6.795788
 20
17.468349
 30
0.000000
 11
8.166158
 21
18.537111
 31
0.000000
  0
LINE
  8
daiko
 10
2.331611
 20
7.518479
 30
0.000000
 11
2.209142
 21
8.249824
 31
0.000000
  0
LINE
  8
daiko
 10
3.548765
 20
22.612510
 30
0.000000
 11
5.958188
 21
23.991697
 31
0.000000
  0
LINE
  8
daiko
 10
1.357935
 20
25.167898
 30
0.000000
 11
1.359918
 21
24.806563
 31
0.000000
  0
LINE
  8
daiko
 10
4.286761
 20
26.853235
 30
0.000000
 11
1.357935
 21
25.167898
 31
0.000000
  0
LINE
  8
daiko
 10
3.569934
 20
22.290881
 30
0.000000
 11
7.686728
 21
18.849527
 31
0.000000
  0
LINE
  8
daiko
 10
1.821087
 20
24.816347
 30
0.000000
 11
3.171564
 21
22.745360
 31
0.000000
  0
LINE
  8
daiko
 10
4.070017
 20
26.114627
 30
0.000000
 11
1.621609
 21
24.701192
 31
0.000000
  0
LINE
  8
daiko
 10
4.258356
 20
26.810722
 30
0.000000
 11
4.258356
 21
26.440840
 31
0.000000
  0
LINE
  8
daiko
 10
5.996649
 20
24.376247
 30
0.000000
 11
4.389961
 21
26.834530
 31
0.000000
  0
TEXT
  8
daiko
 10
0.000000
 20
-11.000000
 30
0.000000
 40
3.000000
  1
DDL-4811FW
  7
BIGFONT
  0
TEXT
  8
daiko
 10
0.000000
 20
-15.000000
 30
0.000000
 40
3.000000
  1
LEDﾀﾞｳﾝﾗｲﾄ
  7
BIGFONT
  0
TEXT
  8
daiko
 10
0.000000
 20
-19.000000
 30
0.000000
 40
3.000000
  1
LDE8.4W
  7
BIGFONT
  0
TEXT
  8
daiko
 10
0.000000
 20
-23.000000
 30
0.000000
 40
3.000000
  1
消費電力 8.4W
  7
BIGFONT
  0
TEXT
  8
daiko
 10
0.000000
 20
-27.000000
 30
0.000000
 40
3.000000
  1
光束値 680lm
  7
BIGFONT
  0
TEXT
  8
daiko
 10
0.000000
 20
-31.000000
 30
0.000000
 40
3.000000
  1
色温度 5000K～2700K Ra83
  7
BIGFONT
  0
TEXT
  8
daiko
 10
0.000000
 20
-35.000000
 30
0.000000
 40
3.000000
  1
施工寸法 φ125 H=80mm
  7
BIGFONT
  0
TEXT
  8
daiko
 10
0.000000
 20
-39.000000
 30
0.000000
 40
3.000000
  1
枠／白塗装
  7
BIGFONT
  0
ENDSEC
  0
EOF
