  0
SECTION
  2
HEADER
  9
$EXTMIN
 10
0.000000
 20
-40.000000
 30
0.000000
  9
$EXTMAX
 10
48.620250
 20
23.069669
 30
0.000000
  0
ENDSEC
  0
SECTION
  2
TABLES
  0
TABLE
  2
LTYPE
 70
     1
  0
LTYPE
  2
CONTINUOUS
 70
     0
  3
Solid line
 72
    65
 73
     0
 40
0.000000
  0
ENDTAB
  0
TABLE
  2
STYLE
 70
     2
  0
STYLE
  2
BIGFONT
 70
     0
 40
1.000000
 41
1.000000
 50
0.000000
 71
     0
 42
0.000000
  3
txt
  4
bigfont
  0
STYLE
  2
STANDARD
 70
     0
 40
0.000000
 41
1.000000
 50
0.000000
 71
     0
 42
3.500000
  3
txt.shx
  4
bigfont.shx
  0
ENDTAB
  0
TABLE
  2
LAYER
 70
     1
  0
LAYER
  2
daiko
 70
     0
 62
     7
  6
CONTINUOUS
  0
ENDTAB
  0
ENDSEC
  0
SECTION
  2
ENTITIES
  0
LINE
  8
daiko
 10
9.691035
 20
4.520508
 30
0.000000
 11
10.359011
 21
4.695231
 31
0.000000
  0
LINE
  8
daiko
 10
17.349639
 20
16.162036
 30
0.000000
 11
17.594019
 21
16.063282
 31
0.000000
  0
LINE
  8
daiko
 10
27.908693
 20
18.821553
 30
0.000000
 11
17.415228
 21
23.061977
 31
0.000000
  0
LINE
  8
daiko
 10
13.191850
 20
21.477819
 30
0.000000
 11
12.795871
 21
21.317803
 31
0.000000
  0
LINE
  8
daiko
 10
11.409941
 20
20.757747
 30
0.000000
 11
6.305524
 21
18.695045
 31
0.000000
  0
LINE
  8
daiko
 10
7.685509
 20
5.808718
 30
0.000000
 11
7.841494
 21
5.849519
 31
0.000000
  0
LINE
  8
daiko
 10
12.952516
 20
3.729996
 30
0.000000
 11
13.121530
 21
3.778319
 31
0.000000
  0
LINE
  8
daiko
 10
17.303238
 20
22.799250
 30
0.000000
 11
17.243771
 21
22.823281
 31
0.000000
  0
LINE
  8
daiko
 10
45.629207
 20
0.040743
 30
0.000000
 11
45.708403
 21
0.008740
 31
0.000000
  0
LINE
  8
daiko
 10
5.438505
 20
19.456273
 30
0.000000
 11
2.468657
 21
18.256153
 31
0.000000
  0
LINE
  8
daiko
 10
2.474457
 20
17.479638
 30
0.000000
 11
2.553653
 21
17.447635
 31
0.000000
  0
LINE
  8
daiko
 10
10.906096
 20
13.172207
 30
0.000000
 11
13.875944
 21
14.372327
 31
0.000000
  0
LINE
  8
daiko
 10
18.327277
 20
11.027536
 30
0.000000
 11
19.045479
 21
11.317763
 31
0.000000
  0
LINE
  8
daiko
 10
22.135540
 20
14.941480
 30
0.000000
 11
22.135540
 21
14.984159
 31
0.000000
  0
LINE
  8
daiko
 10
32.734075
 20
11.017223
 30
0.000000
 11
31.897300
 21
13.896238
 31
0.000000
  0
LINE
  8
daiko
 10
20.469105
 20
14.831876
 30
0.000000
 11
20.414639
 21
14.301170
 31
0.000000
  0
LINE
  8
daiko
 10
20.275386
 20
14.145512
 30
0.000000
 11
20.180017
 21
14.106973
 31
0.000000
  0
LINE
  8
daiko
 10
22.206164
 20
14.912940
 30
0.000000
 11
20.848129
 21
15.461724
 31
0.000000
  0
LINE
  8
daiko
 10
22.444291
 20
14.908357
 30
0.000000
 11
22.402611
 21
14.900107
 31
0.000000
  0
LINE
  8
daiko
 10
19.231633
 20
16.800503
 30
0.000000
 11
19.148722
 21
14.991046
 31
0.000000
  0
LINE
  8
daiko
 10
18.382166
 20
15.747481
 30
0.000000
 11
18.327020
 21
14.658996
 31
0.000000
  0
LINE
  8
daiko
 10
20.850719
 20
16.980102
 30
0.000000
 11
20.651735
 21
17.060511
 31
0.000000
  0
LINE
  8
daiko
 10
23.990980
 20
15.995557
 30
0.000000
 11
21.596063
 21
16.963346
 31
0.000000
  0
LINE
  8
daiko
 10
19.201441
 20
16.141591
 30
0.000000
 11
18.481051
 21
15.850480
 31
0.000000
  0
LINE
  8
daiko
 10
32.369351
 20
11.122640
 30
0.000000
 11
31.773070
 21
12.626270
 31
0.000000
  0
LINE
  8
daiko
 10
31.912035
 20
12.275845
 30
0.000000
 11
31.901926
 21
12.496452
 31
0.000000
  0
LINE
  8
daiko
 10
18.549924
 20
11.117508
 30
0.000000
 11
18.548228
 21
11.091334
 31
0.000000
  0
LINE
  8
daiko
 10
0.000000
 20
7.025268
 30
0.000000
 11
1.969317
 21
7.540383
 31
0.000000
  0
LINE
  8
daiko
 10
1.969317
 20
7.540383
 30
0.000000
 11
1.771327
 21
7.620391
 31
0.000000
  0
LINE
  8
daiko
 10
2.590251
 20
7.834597
 30
0.000000
 11
1.771327
 21
7.620391
 31
0.000000
  0
LINE
  8
daiko
 10
10.232661
 20
4.746289
 30
0.000000
 11
2.590251
 21
7.834597
 31
0.000000
  0
LINE
  8
daiko
 10
9.452734
 20
4.542283
 30
0.000000
 11
10.232661
 21
4.746289
 31
0.000000
  0
LINE
  8
daiko
 10
9.452734
 20
4.542283
 30
0.000000
 11
7.444420
 21
4.016967
 31
0.000000
  0
LINE
  8
daiko
 10
7.444420
 20
4.016967
 30
0.000000
 11
0.000000
 21
7.025268
 31
0.000000
  0
LINE
  8
daiko
 10
3.925589
 20
16.778558
 30
0.000000
 11
2.590251
 21
7.834597
 31
0.000000
  0
LINE
  8
daiko
 10
3.139674
 20
16.785457
 30
0.000000
 11
3.766439
 21
16.949400
 31
0.000000
  0
LINE
  8
daiko
 10
3.139674
 20
16.785457
 30
0.000000
 11
1.771327
 21
7.620391
 31
0.000000
  0
LINE
  8
daiko
 10
1.368347
 20
16.190334
 30
0.000000
 11
0.000000
 21
7.025268
 31
0.000000
  0
LINE
  8
daiko
 10
1.368347
 20
16.190334
 30
0.000000
 11
3.111792
 21
16.646367
 31
0.000000
  0
LINE
  8
daiko
 10
17.935340
 20
16.361226
 30
0.000000
 11
17.935340
 21
16.489259
 31
0.000000
  0
LINE
  8
daiko
 10
17.461629
 20
16.169799
 30
0.000000
 11
17.935340
 21
16.361226
 31
0.000000
  0
LINE
  8
daiko
 10
17.303237
 20
22.732951
 30
0.000000
 11
17.303237
 21
16.233826
 31
0.000000
  0
LINE
  8
daiko
 10
13.343439
 20
21.326021
 30
0.000000
 11
17.303237
 21
22.926181
 31
0.000000
  0
LINE
  8
daiko
 10
13.343439
 20
21.326021
 30
0.000000
 11
13.343439
 21
21.454054
 31
0.000000
  0
LINE
  8
daiko
 10
17.303237
 20
23.054214
 30
0.000000
 11
13.343439
 21
21.454054
 31
0.000000
  0
LINE
  8
daiko
 10
17.461629
 20
16.297832
 30
0.000000
 11
17.461629
 21
22.990187
 31
0.000000
  0
LINE
  8
daiko
 10
17.935340
 20
16.489259
 30
0.000000
 11
17.461629
 21
16.297832
 31
0.000000
  0
LINE
  8
daiko
 10
27.955094
 20
18.749764
 30
0.000000
 11
17.461629
 21
22.990187
 31
0.000000
  0
LINE
  8
daiko
 10
27.955094
 20
15.876531
 30
0.000000
 11
27.955094
 21
18.749764
 31
0.000000
  0
LINE
  8
daiko
 10
13.343439
 20
21.326021
 30
0.000000
 11
13.303841
 21
21.342022
 31
0.000000
  0
LINE
  8
daiko
 10
11.363540
 20
20.685957
 30
0.000000
 11
12.749470
 21
21.246013
 31
0.000000
  0
LINE
  8
daiko
 10
13.145449
 20
21.406029
 30
0.000000
 11
12.749470
 21
21.246013
 31
0.000000
  0
LINE
  8
daiko
 10
13.145449
 20
20.605820
 30
0.000000
 11
13.145449
 21
21.406029
 31
0.000000
  0
LINE
  8
daiko
 10
7.099622
 20
17.842608
 30
0.000000
 11
12.749470
 21
20.125719
 31
0.000000
  0
LINE
  8
daiko
 10
13.145449
 20
20.605820
 30
0.000000
 11
13.303841
 21
20.541813
 31
0.000000
  0
LINE
  8
daiko
 10
12.907862
 20
20.061713
 30
0.000000
 11
12.749470
 21
20.125719
 31
0.000000
  0
LINE
  8
daiko
 10
13.303841
 20
20.541813
 30
0.000000
 11
13.303841
 21
21.342022
 31
0.000000
  0
LINE
  8
daiko
 10
13.343439
 20
21.454054
 30
0.000000
 11
13.303841
 21
21.470056
 31
0.000000
  0
LINE
  8
daiko
 10
12.907862
 20
20.061713
 30
0.000000
 11
7.186260
 21
17.749605
 31
0.000000
  0
LINE
  8
daiko
 10
2.814999
 20
8.218407
 30
0.000000
 11
4.080197
 21
16.612591
 31
0.000000
  0
LINE
  8
daiko
 10
2.659013
 20
8.177605
 30
0.000000
 11
2.814999
 21
8.218407
 31
0.000000
  0
LINE
  8
daiko
 10
3.951228
 20
16.751035
 30
0.000000
 11
2.659013
 21
8.177605
 31
0.000000
  0
LINE
  8
daiko
 10
8.713439
 20
5.612362
 30
0.000000
 11
9.181169
 21
7.945583
 31
0.000000
  0
LINE
  8
daiko
 10
8.389210
 20
8.265615
 30
0.000000
 11
7.921480
 21
5.932394
 31
0.000000
  0
LINE
  8
daiko
 10
7.735582
 20
5.859197
 30
0.000000
 11
3.142217
 21
7.715382
 31
0.000000
  0
LINE
  8
daiko
 10
13.308464
 20
3.977983
 30
0.000000
 11
13.642137
 21
5.642479
 31
0.000000
  0
LINE
  8
daiko
 10
12.843722
 20
3.794991
 30
0.000000
 11
8.844326
 21
5.411152
 31
0.000000
  0
LINE
  8
daiko
 10
3.142217
 20
7.715382
 30
0.000000
 11
2.986231
 21
7.674581
 31
0.000000
  0
LINE
  8
daiko
 10
7.579597
 20
5.818396
 30
0.000000
 11
7.735582
 21
5.859197
 31
0.000000
  0
LINE
  8
daiko
 10
7.579597
 20
5.818396
 30
0.000000
 11
2.986231
 21
7.674581
 31
0.000000
  0
LINE
  8
daiko
 10
8.557454
 20
5.571561
 30
0.000000
 11
8.713439
 21
5.612362
 31
0.000000
  0
LINE
  8
daiko
 10
9.044439
 20
8.000836
 30
0.000000
 11
8.557454
 21
5.571561
 31
0.000000
  0
LINE
  8
daiko
 10
8.844326
 20
5.411152
 30
0.000000
 11
8.688340
 21
5.370351
 31
0.000000
  0
LINE
  8
daiko
 10
12.687736
 20
3.754189
 30
0.000000
 11
12.843722
 21
3.794991
 31
0.000000
  0
LINE
  8
daiko
 10
12.687736
 20
3.754189
 30
0.000000
 11
8.688340
 21
5.370351
 31
0.000000
  0
LINE
  8
daiko
 10
17.460164
 20
15.881157
 30
0.000000
 11
18.133330
 21
16.153184
 31
0.000000
  0
LINE
  8
daiko
 10
13.399880
 20
6.240797
 30
0.000000
 11
3.501877
 21
10.240593
 31
0.000000
  0
LINE
  8
daiko
 10
18.133330
 20
16.281218
 30
0.000000
 11
18.133330
 21
16.153184
 31
0.000000
  0
LINE
  8
daiko
 10
17.460164
 20
16.009191
 30
0.000000
 11
17.460164
 21
15.881157
 31
0.000000
  0
LINE
  8
daiko
 10
17.460164
 20
16.009191
 30
0.000000
 11
18.133330
 21
16.281218
 31
0.000000
  0
LINE
  8
daiko
 10
17.460164
 20
16.117372
 30
0.000000
 11
17.460164
 21
16.009191
 31
0.000000
  0
LINE
  8
daiko
 10
17.301772
 20
22.925589
 30
0.000000
 11
17.301772
 21
16.073197
 31
0.000000
  0
LINE
  8
daiko
 10
17.103782
 20
22.813578
 30
0.000000
 11
13.303841
 21
21.278016
 31
0.000000
  0
LINE
  8
daiko
 10
4.155813
 20
16.531420
 30
0.000000
 11
3.343485
 21
10.432634
 31
0.000000
  0
LINE
  8
daiko
 10
48.378920
 20
2.063766
 30
0.000000
 11
48.402706
 21
2.065948
 31
0.000000
  0
LINE
  8
daiko
 10
48.402706
 20
2.065948
 30
0.000000
 11
48.429617
 21
2.061033
 31
0.000000
  0
LINE
  8
daiko
 10
48.429617
 20
2.061033
 30
0.000000
 11
48.457516
 21
2.049412
 31
0.000000
  0
LINE
  8
daiko
 10
48.457516
 20
2.049412
 30
0.000000
 11
48.484188
 21
2.032007
 31
0.000000
  0
LINE
  8
daiko
 10
48.484188
 20
2.032007
 30
0.000000
 11
48.507513
 21
2.010203
 31
0.000000
  0
LINE
  8
daiko
 10
48.507513
 20
2.010203
 30
0.000000
 11
48.525636
 21
1.985730
 31
0.000000
  0
LINE
  8
daiko
 10
48.525636
 20
1.985730
 30
0.000000
 11
48.537122
 21
1.960533
 31
0.000000
  0
LINE
  8
daiko
 10
48.537122
 20
1.960533
 30
0.000000
 11
48.541054
 21
1.936614
 31
0.000000
  0
LINE
  8
daiko
 10
46.713687
 20
1.622041
 30
0.000000
 11
48.378920
 21
2.063766
 31
0.000000
  0
LINE
  8
daiko
 10
41.967156
 20
2.591376
 30
0.000000
 11
46.294904
 21
1.626066
 31
0.000000
  0
LINE
  8
daiko
 10
46.277749
 20
1.695495
 30
0.000000
 11
41.949767
 21
2.660858
 31
0.000000
  0
LINE
  8
daiko
 10
48.328410
 20
2.133483
 30
0.000000
 11
46.663177
 21
1.691759
 31
0.000000
  0
LINE
  8
daiko
 10
48.620250
 20
1.904611
 30
0.000000
 11
48.613171
 21
1.947665
 31
0.000000
  0
LINE
  8
daiko
 10
48.613171
 20
1.947665
 30
0.000000
 11
48.592500
 21
1.993019
 31
0.000000
  0
LINE
  8
daiko
 10
48.592500
 20
1.993019
 30
0.000000
 11
48.559874
 21
2.037070
 31
0.000000
  0
LINE
  8
daiko
 10
48.559874
 20
2.037070
 30
0.000000
 11
48.517890
 21
2.076319
 31
0.000000
  0
LINE
  8
daiko
 10
48.517890
 20
2.076319
 30
0.000000
 11
48.469882
 21
2.107646
 31
0.000000
  0
LINE
  8
daiko
 10
48.469882
 20
2.107646
 30
0.000000
 11
48.419662
 21
2.128564
 31
0.000000
  0
LINE
  8
daiko
 10
48.419662
 20
2.128564
 30
0.000000
 11
48.371223
 21
2.137411
 31
0.000000
  0
LINE
  8
daiko
 10
48.371223
 20
2.137411
 30
0.000000
 11
48.328410
 21
2.133483
 31
0.000000
  0
LINE
  8
daiko
 10
48.620250
 20
1.298597
 30
0.000000
 11
48.620250
 21
1.904611
 31
0.000000
  0
LINE
  8
daiko
 10
48.541054
 20
1.330600
 30
0.000000
 11
48.620250
 21
1.298597
 31
0.000000
  0
LINE
  8
daiko
 10
48.541054
 20
1.936614
 30
0.000000
 11
48.541054
 21
1.330600
 31
0.000000
  0
LINE
  8
daiko
 10
37.813526
 20
5.007546
 30
0.000000
 11
35.962313
 21
4.259468
 31
0.000000
  0
LINE
  8
daiko
 10
40.054058
 20
3.859168
 30
0.000000
 11
37.084210
 21
2.659048
 31
0.000000
  0
LINE
  8
daiko
 10
41.967156
 20
2.591376
 30
0.000000
 11
38.997308
 21
1.391256
 31
0.000000
  0
LINE
  8
daiko
 10
38.997308
 20
1.391256
 30
0.000000
 11
43.325055
 21
0.425946
 31
0.000000
  0
LINE
  8
daiko
 10
48.378920
 20
2.063766
 30
0.000000
 11
45.409072
 21
0.863646
 31
0.000000
  0
LINE
  8
daiko
 10
43.743838
 20
0.421922
 30
0.000000
 11
45.409072
 21
0.863646
 31
0.000000
  0
LINE
  8
daiko
 10
48.422260
 20
1.058547
 30
0.000000
 11
48.343065
 21
1.090550
 31
0.000000
  0
LINE
  8
daiko
 10
48.541054
 20
1.936614
 30
0.000000
 11
45.571206
 21
0.736494
 31
0.000000
  0
LINE
  8
daiko
 10
48.343065
 20
1.090550
 30
0.000000
 11
45.769196
 21
0.050446
 31
0.000000
  0
LINE
  8
daiko
 10
45.571206
 20
0.736494
 30
0.000000
 11
45.571206
 21
0.130481
 31
0.000000
  0
LINE
  8
daiko
 10
45.769196
 20
0.050446
 30
0.000000
 11
45.848392
 21
0.018443
 31
0.000000
  0
LINE
  8
daiko
 10
48.422260
 20
1.058547
 30
0.000000
 11
45.848392
 21
0.018443
 31
0.000000
  0
LINE
  8
daiko
 10
45.409072
 20
0.863646
 30
0.000000
 11
45.432857
 21
0.865828
 31
0.000000
  0
LINE
  8
daiko
 10
45.432857
 20
0.865828
 30
0.000000
 11
45.459768
 21
0.860913
 31
0.000000
  0
LINE
  8
daiko
 10
45.459768
 20
0.860913
 30
0.000000
 11
45.487667
 21
0.849292
 31
0.000000
  0
LINE
  8
daiko
 10
45.487667
 20
0.849292
 30
0.000000
 11
45.514339
 21
0.831887
 31
0.000000
  0
LINE
  8
daiko
 10
45.514339
 20
0.831887
 30
0.000000
 11
45.537664
 21
0.810083
 31
0.000000
  0
LINE
  8
daiko
 10
45.537664
 20
0.810083
 30
0.000000
 11
45.555788
 21
0.785610
 31
0.000000
  0
LINE
  8
daiko
 10
45.555788
 20
0.785610
 30
0.000000
 11
45.567273
 21
0.760413
 31
0.000000
  0
LINE
  8
daiko
 10
45.567273
 20
0.760413
 30
0.000000
 11
45.571206
 21
0.736494
 31
0.000000
  0
LINE
  8
daiko
 10
5.386304
 20
19.375509
 30
0.000000
 11
5.393384
 21
19.412842
 31
0.000000
  0
LINE
  8
daiko
 10
5.393384
 20
19.412842
 30
0.000000
 11
5.414055
 21
19.441489
 31
0.000000
  0
LINE
  8
daiko
 10
5.414055
 20
19.441489
 30
0.000000
 11
5.446680
 21
19.459172
 31
0.000000
  0
LINE
  8
daiko
 10
5.446680
 20
19.459172
 30
0.000000
 11
5.488664
 21
19.464489
 31
0.000000
  0
LINE
  8
daiko
 10
5.488664
 20
19.464489
 30
0.000000
 11
5.536673
 21
19.457016
 31
0.000000
  0
LINE
  8
daiko
 10
5.536673
 20
19.457016
 30
0.000000
 11
5.586892
 21
19.437347
 31
0.000000
  0
LINE
  8
daiko
 10
5.586892
 20
19.437347
 30
0.000000
 11
5.635332
 21
19.407044
 31
0.000000
  0
LINE
  8
daiko
 10
5.635332
 20
19.407044
 30
0.000000
 11
5.678145
 21
19.368515
 31
0.000000
  0
LINE
  8
daiko
 10
5.678145
 20
19.368515
 30
0.000000
 11
7.343378
 21
17.580945
 31
0.000000
  0
LINE
  8
daiko
 10
7.728806
 20
17.273177
 30
0.000000
 11
12.056787
 21
14.740653
 31
0.000000
  0
LINE
  8
daiko
 10
12.056787
 20
14.740653
 30
0.000000
 11
12.307533
 21
14.607531
 31
0.000000
  0
LINE
  8
daiko
 10
12.307533
 20
14.607531
 30
0.000000
 11
12.561282
 21
14.500485
 31
0.000000
  0
LINE
  8
daiko
 10
12.561282
 20
14.500485
 30
0.000000
 11
12.813513
 21
14.421422
 31
0.000000
  0
LINE
  8
daiko
 10
12.813513
 20
14.421422
 30
0.000000
 11
13.059726
 21
14.371752
 31
0.000000
  0
LINE
  8
daiko
 10
13.059726
 20
14.371752
 30
0.000000
 11
13.295531
 21
14.352360
 31
0.000000
  0
LINE
  8
daiko
 10
13.295531
 20
14.352360
 30
0.000000
 11
13.516724
 21
14.363593
 31
0.000000
  0
LINE
  8
daiko
 10
13.516724
 20
14.363593
 30
0.000000
 11
13.719360
 21
14.405251
 31
0.000000
  0
LINE
  8
daiko
 10
13.719360
 20
14.405251
 30
0.000000
 11
13.899825
 21
14.476590
 31
0.000000
  0
LINE
  8
daiko
 10
13.899825
 20
14.476590
 30
0.000000
 11
14.159530
 21
14.497898
 31
0.000000
  0
LINE
  8
daiko
 10
14.159530
 20
14.497898
 30
0.000000
 11
14.435568
 21
14.487454
 31
0.000000
  0
LINE
  8
daiko
 10
14.435568
 20
14.487454
 30
0.000000
 11
14.724231
 21
14.445398
 31
0.000000
  0
LINE
  8
daiko
 10
14.724231
 20
14.445398
 30
0.000000
 11
15.021635
 21
14.372297
 31
0.000000
  0
LINE
  8
daiko
 10
15.021635
 20
14.372297
 30
0.000000
 11
15.323783
 21
14.269133
 31
0.000000
  0
LINE
  8
daiko
 10
15.323783
 20
14.269133
 30
0.000000
 11
15.626611
 21
14.137292
 31
0.000000
  0
LINE
  8
daiko
 10
15.626611
 20
14.137292
 30
0.000000
 11
15.926046
 21
13.978549
 31
0.000000
  0
LINE
  8
daiko
 10
15.926046
 20
13.978549
 30
0.000000
 11
16.218064
 21
13.795038
 31
0.000000
  0
LINE
  8
daiko
 10
18.654777
 20
11.798523
 30
0.000000
 11
18.788058
 21
11.549462
 31
0.000000
  0
LINE
  8
daiko
 10
18.788058
 20
11.549462
 30
0.000000
 11
18.791100
 21
11.507831
 31
0.000000
  0
LINE
  8
daiko
 10
18.791100
 20
11.507831
 30
0.000000
 11
18.814466
 21
11.462590
 31
0.000000
  0
LINE
  8
daiko
 10
18.814466
 20
11.462590
 30
0.000000
 11
18.854005
 21
11.421776
 31
0.000000
  0
LINE
  8
daiko
 10
18.854005
 20
11.421776
 30
0.000000
 11
18.902692
 21
11.392641
 31
0.000000
  0
LINE
  8
daiko
 10
18.902692
 20
11.392641
 30
0.000000
 11
18.951876
 21
11.380362
 31
0.000000
  0
LINE
  8
daiko
 10
18.951876
 20
11.380362
 30
0.000000
 11
18.992819
 21
11.387120
 31
0.000000
  0
LINE
  8
daiko
 10
18.992819
 20
11.387120
 30
0.000000
 11
19.018244
 21
11.411716
 31
0.000000
  0
LINE
  8
daiko
 10
19.018244
 20
11.411716
 30
0.000000
 11
19.023637
 21
11.449778
 31
0.000000
  0
LINE
  8
daiko
 10
19.023637
 20
11.449778
 30
0.000000
 11
20.691599
 21
15.614525
 31
0.000000
  0
LINE
  8
daiko
 10
20.691599
 20
15.614525
 30
0.000000
 11
22.053530
 21
15.064167
 31
0.000000
  0
LINE
  8
daiko
 10
22.053530
 20
15.000150
 30
0.000000
 11
22.053530
 21
15.064167
 31
0.000000
  0
LINE
  8
daiko
 10
22.053530
 20
15.000150
 30
0.000000
 11
20.746797
 21
15.528203
 31
0.000000
  0
LINE
  8
daiko
 10
20.746797
 20
15.528203
 30
0.000000
 11
19.103480
 21
11.407501
 31
0.000000
  0
LINE
  8
daiko
 10
19.103480
 20
11.407501
 30
0.000000
 11
19.088409
 21
11.352345
 31
0.000000
  0
LINE
  8
daiko
 10
19.088409
 20
11.352345
 30
0.000000
 11
19.045490
 21
11.317768
 31
0.000000
  0
LINE
  8
daiko
 10
19.045490
 20
11.317768
 30
0.000000
 11
18.981258
 21
11.309031
 31
0.000000
  0
LINE
  8
daiko
 10
18.981258
 20
11.309031
 30
0.000000
 11
18.905491
 21
11.327467
 31
0.000000
  0
LINE
  8
daiko
 10
18.905491
 20
11.327467
 30
0.000000
 11
18.829723
 21
11.370267
 31
0.000000
  0
LINE
  8
daiko
 10
18.829723
 20
11.370267
 30
0.000000
 11
18.765490
 21
11.430916
 31
0.000000
  0
LINE
  8
daiko
 10
18.765490
 20
11.430916
 30
0.000000
 11
18.722572
 21
11.500181
 31
0.000000
  0
LINE
  8
daiko
 10
18.722572
 20
11.500181
 30
0.000000
 11
18.707500
 21
11.567517
 31
0.000000
  0
LINE
  8
daiko
 10
18.707500
 20
11.567517
 30
0.000000
 11
18.593854
 21
11.779885
 31
0.000000
  0
LINE
  8
daiko
 10
13.952497
 20
14.406845
 30
0.000000
 11
13.764531
 21
14.333960
 31
0.000000
  0
LINE
  8
daiko
 10
13.764531
 20
14.333960
 30
0.000000
 11
13.553811
 21
14.291732
 31
0.000000
  0
LINE
  8
daiko
 10
13.553811
 20
14.291732
 30
0.000000
 11
13.324053
 21
14.280910
 31
0.000000
  0
LINE
  8
daiko
 10
13.324053
 20
14.280910
 30
0.000000
 11
13.079319
 21
14.301682
 31
0.000000
  0
LINE
  8
daiko
 10
13.079319
 20
14.301682
 30
0.000000
 11
12.823929
 21
14.353684
 31
0.000000
  0
LINE
  8
daiko
 10
12.823929
 20
14.353684
 30
0.000000
 11
12.562394
 21
14.435996
 31
0.000000
  0
LINE
  8
daiko
 10
12.562394
 20
14.435996
 30
0.000000
 11
12.299336
 21
14.547164
 31
0.000000
  0
LINE
  8
daiko
 10
12.299336
 20
14.547164
 30
0.000000
 11
12.039398
 21
14.685225
 31
0.000000
  0
LINE
  8
daiko
 10
12.039398
 20
14.685225
 30
0.000000
 11
7.711651
 21
17.217612
 31
0.000000
  0
LINE
  8
daiko
 10
7.292868
 20
17.552050
 30
0.000000
 11
5.627634
 21
19.339620
 31
0.000000
  0
LINE
  8
daiko
 10
5.627634
 20
19.339620
 30
0.000000
 11
5.603849
 21
19.361025
 31
0.000000
  0
LINE
  8
daiko
 10
5.603849
 20
19.361025
 30
0.000000
 11
5.576938
 21
19.377860
 31
0.000000
  0
LINE
  8
daiko
 10
5.576938
 20
19.377860
 30
0.000000
 11
5.549039
 21
19.388787
 31
0.000000
  0
LINE
  8
daiko
 10
5.549039
 20
19.388787
 30
0.000000
 11
5.522367
 21
19.392939
 31
0.000000
  0
LINE
  8
daiko
 10
5.522367
 20
19.392939
 30
0.000000
 11
5.499042
 21
19.389986
 31
0.000000
  0
LINE
  8
daiko
 10
5.499042
 20
19.389986
 30
0.000000
 11
5.480918
 21
19.380161
 31
0.000000
  0
LINE
  8
daiko
 10
5.480918
 20
19.380161
 30
0.000000
 11
5.469433
 21
19.364246
 31
0.000000
  0
LINE
  8
daiko
 10
5.469433
 20
19.364246
 30
0.000000
 11
5.465500
 21
19.343506
 31
0.000000
  0
LINE
  8
daiko
 10
5.465500
 20
19.343506
 30
0.000000
 11
5.465500
 21
18.737492
 31
0.000000
  0
LINE
  8
daiko
 10
5.386304
 20
18.769495
 30
0.000000
 11
5.465500
 21
18.737492
 31
0.000000
  0
LINE
  8
daiko
 10
5.386304
 20
18.769495
 30
0.000000
 11
5.386304
 21
19.375509
 31
0.000000
  0
LINE
  8
daiko
 10
4.323019
 20
16.351930
 30
0.000000
 11
3.129271
 21
17.633377
 31
0.000000
  0
LINE
  8
daiko
 10
5.267510
 20
18.497442
 30
0.000000
 11
5.188315
 21
18.529445
 31
0.000000
  0
LINE
  8
daiko
 10
2.416456
 20
18.175389
 30
0.000000
 11
5.386304
 21
19.375509
 31
0.000000
  0
LINE
  8
daiko
 10
2.614446
 20
17.489341
 30
0.000000
 11
5.188315
 21
18.529445
 31
0.000000
  0
LINE
  8
daiko
 10
2.416456
 20
17.569375
 30
0.000000
 11
2.416456
 21
18.175389
 31
0.000000
  0
LINE
  8
daiko
 10
2.614446
 20
17.489341
 30
0.000000
 11
2.693642
 21
17.457338
 31
0.000000
  0
LINE
  8
daiko
 10
2.693642
 20
17.457338
 30
0.000000
 11
5.267510
 21
18.497442
 31
0.000000
  0
LINE
  8
daiko
 10
9.069550
 20
13.485105
 30
0.000000
 11
12.039398
 21
14.685225
 31
0.000000
  0
LINE
  8
daiko
 10
9.069550
 20
13.485105
 30
0.000000
 11
4.741803
 21
16.017493
 31
0.000000
  0
LINE
  8
daiko
 10
10.906096
 20
13.172207
 30
0.000000
 11
10.794683
 21
13.133840
 31
0.000000
  0
LINE
  8
daiko
 10
10.794683
 20
13.133840
 30
0.000000
 11
10.583962
 21
13.091612
 31
0.000000
  0
LINE
  8
daiko
 10
10.583962
 20
13.091612
 30
0.000000
 11
10.354205
 21
13.080790
 31
0.000000
  0
LINE
  8
daiko
 10
10.354205
 20
13.080790
 30
0.000000
 11
10.109470
 21
13.101563
 31
0.000000
  0
LINE
  8
daiko
 10
10.109470
 20
13.101563
 30
0.000000
 11
9.854081
 21
13.153564
 31
0.000000
  0
LINE
  8
daiko
 10
9.854081
 20
13.153564
 30
0.000000
 11
9.592546
 21
13.235876
 31
0.000000
  0
LINE
  8
daiko
 10
9.592546
 20
13.235876
 30
0.000000
 11
9.329487
 21
13.347044
 31
0.000000
  0
LINE
  8
daiko
 10
9.329487
 20
13.347044
 30
0.000000
 11
9.069550
 21
13.485105
 31
0.000000
  0
LINE
  8
daiko
 10
13.735016
 20
14.409990
 30
0.000000
 11
13.899825
 21
14.476590
 31
0.000000
  0
LINE
  8
daiko
 10
13.223180
 20
12.544299
 30
0.000000
 11
16.193029
 21
13.744419
 31
0.000000
  0
LINE
  8
daiko
 10
15.624006
 20
10.579765
 30
0.000000
 11
18.593854
 21
11.779885
 31
0.000000
  0
LINE
  8
daiko
 10
15.737652
 20
10.367397
 30
0.000000
 11
18.707500
 21
11.567517
 31
0.000000
  0
LINE
  8
daiko
 10
15.737652
 20
10.367397
 30
0.000000
 11
15.624006
 21
10.579765
 31
0.000000
  0
LINE
  8
daiko
 10
18.893085
 20
11.397022
 30
0.000000
 11
19.023637
 21
11.449778
 31
0.000000
  0
LINE
  8
daiko
 10
17.721750
 20
14.414405
 30
0.000000
 11
20.691599
 21
15.614525
 31
0.000000
  0
LINE
  8
daiko
 10
17.193285
 20
13.089510
 30
0.000000
 11
17.721750
 21
14.414405
 31
0.000000
  0
LINE
  8
daiko
 10
19.755122
 20
13.041526
 30
0.000000
 11
20.667753
 21
13.410321
 31
0.000000
  0
LINE
  8
daiko
 10
20.865438
 20
13.410321
 30
0.000000
 11
21.986518
 21
12.957291
 31
0.000000
  0
LINE
  8
daiko
 10
22.194541
 20
13.794385
 30
0.000000
 11
22.148373
 21
12.946660
 31
0.000000
  0
LINE
  8
daiko
 10
22.389585
 20
14.885316
 30
0.000000
 11
22.359239
 21
14.785315
 31
0.000000
  0
LINE
  8
daiko
 10
22.359239
 20
14.785315
 30
0.000000
 11
22.194541
 21
13.794385
 31
0.000000
  0
LINE
  8
daiko
 10
20.865438
 20
15.437429
 30
0.000000
 11
20.865438
 21
13.410321
 31
0.000000
  0
LINE
  8
daiko
 10
21.986518
 20
12.957291
 30
0.000000
 11
22.033059
 21
13.814916
 31
0.000000
  0
LINE
  8
daiko
 10
22.223473
 20
14.888645
 30
0.000000
 11
20.865438
 21
15.437429
 31
0.000000
  0
LINE
  8
daiko
 10
22.033059
 20
13.814916
 30
0.000000
 11
22.223473
 21
14.888645
 31
0.000000
  0
LINE
  8
daiko
 10
20.868099
 20
16.954429
 30
0.000000
 11
20.669115
 21
17.034839
 31
0.000000
  0
LINE
  8
daiko
 10
31.723173
 20
12.703063
 30
0.000000
 11
31.588907
 21
12.757320
 31
0.000000
  0
LINE
  8
daiko
 10
19.717085
 20
12.946147
 30
0.000000
 11
19.875709
 21
13.010247
 31
0.000000
  0
LINE
  8
daiko
 10
20.271553
 20
13.010247
 30
0.000000
 11
20.916135
 21
12.749771
 31
0.000000
  0
LINE
  8
daiko
 10
30.468101
 20
12.730192
 30
0.000000
 11
30.351162
 21
12.682937
 31
0.000000
  0
LINE
  8
daiko
 10
17.461629
 20
16.169799
 30
0.000000
 11
17.659619
 21
16.089791
 31
0.000000
  0
LINE
  8
daiko
 10
11.363540
 20
20.685957
 30
0.000000
 11
6.341421
 21
18.656511
 31
0.000000
  0
LINE
  8
daiko
 10
17.460164
 20
15.881157
 30
0.000000
 11
14.018747
 21
14.490475
 31
0.000000
  0
LINE
  8
daiko
 10
10.547289
 20
13.087654
 30
0.000000
 11
3.501877
 21
10.240593
 31
0.000000
  0
LINE
  8
daiko
 10
3.343485
 20
10.432634
 30
0.000000
 11
9.996228
 21
13.121017
 31
0.000000
  0
LINE
  8
daiko
 10
13.083309
 20
14.368510
 30
0.000000
 11
17.301772
 21
16.073197
 31
0.000000
  0
LINE
  8
daiko
 10
5.465501
 20
19.274102
 30
0.000000
 11
5.627634
 21
19.339620
 31
0.000000
  0
LINE
  8
daiko
 10
20.667753
 20
13.410321
 30
0.000000
 11
20.667753
 21
15.329996
 31
0.000000
  0
LINE
  8
daiko
 10
20.439473
 20
14.182986
 30
0.000000
 11
20.166309
 21
14.072600
 31
0.000000
  0
LINE
  8
daiko
 10
20.518878
 20
14.956683
 30
0.000000
 11
20.439473
 21
14.182986
 31
0.000000
  0
LINE
  8
daiko
 10
20.716061
 20
15.604640
 30
0.000000
 11
20.669115
 21
17.034839
 31
0.000000
  0
LINE
  8
daiko
 10
18.463671
 20
15.824808
 30
0.000000
 11
18.406083
 21
14.690945
 31
0.000000
  0
LINE
  8
daiko
 10
19.200570
 20
16.122590
 30
0.000000
 11
18.463671
 21
15.824808
 31
0.000000
  0
LINE
  8
daiko
 10
20.868099
 20
15.543201
 30
0.000000
 11
20.868099
 21
16.954429
 31
0.000000
  0
LINE
  8
daiko
 10
21.240771
 20
16.946179
 30
0.000000
 11
21.240771
 21
15.404727
 31
0.000000
  0
LINE
  8
daiko
 10
21.613443
 20
16.937674
 30
0.000000
 11
21.613443
 21
15.532035
 31
0.000000
  0
LINE
  8
daiko
 10
23.952552
 20
15.992436
 30
0.000000
 11
21.613443
 21
16.937674
 31
0.000000
  0
LINE
  8
daiko
 10
21.273004
 20
12.736648
 30
0.000000
 11
21.274377
 21
12.424318
 31
0.000000
  0
LINE
  8
daiko
 10
21.274377
 20
12.424318
 30
0.000000
 11
21.275668
 21
11.660246
 31
0.000000
  0
LINE
  8
daiko
 10
29.983993
 20
11.632729
 30
0.000000
 11
29.985291
 21
12.468274
 31
0.000000
  0
LINE
  8
daiko
 10
29.985291
 20
12.468274
 30
0.000000
 11
29.985971
 21
12.672226
 31
0.000000
  0
LINE
  8
daiko
 10
32.016159
 20
11.214298
 30
0.000000
 11
31.634208
 21
12.290562
 31
0.000000
  0
LINE
  8
daiko
 10
31.610750
 20
12.736404
 30
0.000000
 11
32.245786
 21
11.155499
 31
0.000000
  0
LINE
  8
daiko
 10
32.343073
 20
11.129701
 30
0.000000
 11
31.716538
 21
12.693655
 31
0.000000
  0
LINE
  8
daiko
 10
31.634208
 20
12.290562
 30
0.000000
 11
31.643269
 21
11.309335
 31
0.000000
  0
LINE
  8
daiko
 10
20.271553
 20
13.010247
 30
0.000000
 11
20.271553
 21
11.493061
 31
0.000000
  0
LINE
  8
daiko
 10
19.875709
 20
11.413107
 30
0.000000
 11
19.875709
 21
13.010247
 31
0.000000
  0
LINE
  8
daiko
 10
18.628904
 20
11.149425
 30
0.000000
 11
18.626560
 21
11.113239
 31
0.000000
  0
LINE
  8
daiko
 10
30.445135
 20
11.571425
 30
0.000000
 11
30.468101
 21
12.730192
 31
0.000000
  0
LINE
  8
daiko
 10
31.357081
 20
11.377023
 30
0.000000
 11
31.353049
 21
12.072478
 31
0.000000
  0
LINE
  8
daiko
 10
31.353049
 20
12.072478
 30
0.000000
 11
31.349823
 21
12.264087
 31
0.000000
  0
LINE
  8
daiko
 10
20.919921
 20
11.595441
 30
0.000000
 11
20.916135
 21
12.749771
 31
0.000000
  0
LINE
  8
daiko
 10
30.351162
 20
12.682937
 30
0.000000
 11
30.348206
 21
11.575526
 31
0.000000
  0
ARC
  8
daiko
 10
2.504039
 20
17.562371
 30
0.000000
 40
0.087863
 50
175.427669
 51
250.324896
  0
ARC
  8
daiko
 10
2.533367
 20
17.644393
 30
0.000000
 40
0.174971
 50
250.324896
 51
297.605555
  0
ARC
  8
daiko
 10
2.611215
 20
17.631837
 30
0.000000
 40
0.192987
 50
252.646210
 51
295.284241
  0
ARC
  8
daiko
 10
2.499258
 20
18.179123
 30
0.000000
 40
0.082886
 50
111.666093
 51
182.581853
  0
ARC
  8
daiko
 10
5.085250
 20
18.816126
 30
0.000000
 40
0.304644
 50
289.773984
 51
351.195357
  0
ARC
  8
daiko
 10
5.164446
 20
18.784123
 30
0.000000
 40
0.304644
 50
289.773984
 51
351.195357
  0
ARC
  8
daiko
 10
5.671020
 20
17.610481
 30
0.000000
 40
1.844196
 50
223.034552
 51
239.744262
  0
ARC
  8
daiko
 10
8.640869
 20
18.810601
 30
0.000000
 40
1.844196
 50
223.034552
 51
239.744262
  0
ARC
  8
daiko
 10
8.583543
 20
18.738820
 30
0.000000
 40
1.696668
 50
223.034644
 51
239.750000
  0
ARC
  8
daiko
 10
11.447022
 20
20.682889
 30
0.000000
 40
0.083538
 50
80.992929
 51
177.895610
  0
ARC
  8
daiko
 10
11.413416
 20
20.470879
 30
0.000000
 40
0.298195
 50
69.007071
 51
80.992929
  0
ARC
  8
daiko
 10
12.819132
 20
21.251878
 30
0.000000
 40
0.069909
 50
109.435104
 51
184.812263
  0
ARC
  8
daiko
 10
13.215629
 20
21.411559
 30
0.000000
 40
0.070397
 50
109.741724
 51
184.505643
  0
ARC
  8
daiko
 10
13.239006
 20
21.346418
 30
0.000000
 40
0.139606
 50
62.327750
 51
109.741724
  0
ARC
  8
daiko
 10
12.543344
 20
20.699077
 30
0.000000
 40
0.609284
 50
289.773832
 51
351.195632
  0
ARC
  8
daiko
 10
12.701736
 20
20.635071
 30
0.000000
 40
0.609284
 50
289.773832
 51
351.195632
  0
ARC
  8
daiko
 10
17.185392
 20
22.650855
 30
0.000000
 40
0.182041
 50
71.295233
 51
116.635000
  0
ARC
  8
daiko
 10
17.215025
 20
22.738378
 30
0.000000
 40
0.089637
 50
14.588355
 51
71.295233
  0
ARC
  8
daiko
 10
17.368526
 20
22.924037
 30
0.000000
 40
0.145632
 50
71.295283
 51
116.635181
  0
ARC
  8
daiko
 10
17.393171
 20
22.996830
 30
0.000000
 40
0.068780
 50
354.457613
 51
71.295283
  0
ARC
  8
daiko
 10
17.396342
 20
16.299975
 30
0.000000
 40
0.145631
 50
251.295085
 51
296.635378
  0
ARC
  8
daiko
 10
17.371696
 20
16.227183
 30
0.000000
 40
0.068780
 50
174.457810
 51
251.295085
  0
ARC
  8
daiko
 10
17.542617
 20
16.110502
 30
0.000000
 40
0.243716
 50
188.804695
 51
250.225894
  0
ARC
  8
daiko
 10
19.301568
 20
12.525362
 30
0.000000
 40
4.071907
 50
91.115664
 51
109.604493
  0
ARC
  8
daiko
 10
19.301868
 20
12.652112
 30
0.000000
 40
4.073217
 50
91.036902
 51
109.602408
  0
ARC
  8
daiko
 10
19.487873
 20
12.493252
 30
0.000000
 40
4.022869
 50
93.843881
 51
109.676600
  0
ARC
  8
daiko
 10
19.487492
 20
12.366721
 30
0.000000
 40
4.021325
 50
93.923966
 51
109.678693
  0
ARC
  8
daiko
 10
18.516382
 20
15.717593
 30
0.000000
 40
0.137503
 50
104.888945
 51
167.445865
  0
ARC
  8
daiko
 10
18.515100
 20
15.690622
 30
0.000000
 40
0.143704
 50
110.970343
 51
157.088170
  0
ARC
  8
daiko
 10
18.490830
 20
15.825140
 30
0.000000
 40
0.027162
 50
111.103219
 51
180.701240
  0
ARC
  8
daiko
 10
7.287498
 20
0.410193
 30
0.000000
 40
16.090652
 50
45.053005
 51
56.288197
  0
ARC
  8
daiko
 10
14.183514
 20
11.067917
 30
0.000000
 40
3.346911
 50
53.100822
 51
93.957937
  0
ARC
  8
daiko
 10
7.344406
 20
0.481386
 30
0.000000
 40
15.943844
 50
45.124639
 51
56.290193
  0
ARC
  8
daiko
 10
11.214455
 20
9.869366
 30
0.000000
 40
3.345182
 50
53.095493
 51
93.801673
  0
ARC
  8
daiko
 10
4.374557
 20
-0.718733
 30
0.000000
 40
15.943844
 50
45.124639
 51
56.290193
  0
ARC
  8
daiko
 10
16.039765
 20
10.413221
 30
0.000000
 40
0.305569
 50
188.624876
 51
258.114080
  0
ARC
  8
daiko
 10
20.766595
 20
13.123609
 30
0.000000
 40
0.303272
 50
70.978669
 51
109.021352
  0
ARC
  8
daiko
 10
20.073631
 20
12.435713
 30
0.000000
 40
0.607670
 50
70.991612
 51
109.008395
  0
ARC
  8
daiko
 10
20.213477
 20
14.341013
 30
0.000000
 40
0.205070
 50
287.571183
 51
348.796599
  0
ARC
  8
daiko
 10
20.543843
 20
13.329847
 30
0.000000
 40
0.859499
 50
96.974756
 51
107.007222
  0
ARC
  8
daiko
 10
20.708225
 20
14.301161
 30
0.000000
 40
0.293587
 50
179.998687
 51
203.735941
  0
ARC
  8
daiko
 10
20.770843
 20
15.265798
 30
0.000000
 40
0.210618
 50
68.472344
 51
102.837683
  0
ARC
  8
daiko
 10
20.765354
 20
15.163841
 30
0.000000
 40
0.291320
 50
69.906500
 51
99.756248
  0
ARC
  8
daiko
 10
20.838525
 20
15.436568
 30
0.000000
 40
0.026927
 50
1.831759
 51
69.103879
  0
ARC
  8
daiko
 10
20.071829
 20
15.426655
 30
0.000000
 40
1.733717
 50
70.458397
 51
97.821607
  0
ARC
  8
daiko
 10
20.052761
 20
15.565465
 30
0.000000
 40
1.593604
 50
97.821607
 51
112.178393
  0
ARC
  8
daiko
 10
19.612880
 20
16.644523
 30
0.000000
 40
0.428331
 50
112.178393
 51
149.007745
  0
ARC
  8
daiko
 10
19.334039
 20
16.812017
 30
0.000000
 40
0.103051
 50
149.007745
 51
186.414911
  0
ARC
  8
daiko
 10
20.053338
 20
15.162060
 30
0.000000
 40
1.971416
 50
71.798911
 51
93.240733
  0
ARC
  8
daiko
 10
20.033570
 20
15.511183
 30
0.000000
 40
1.621734
 50
93.240733
 51
110.028472
  0
ARC
  8
daiko
 10
19.637662
 20
16.597249
 30
0.000000
 40
0.465757
 50
110.028472
 51
143.912657
  0
ARC
  8
daiko
 10
19.395049
 20
16.774084
 30
0.000000
 40
0.165538
 50
143.912657
 51
170.816628
  0
ARC
  8
daiko
 10
21.068078
 20
17.611901
 30
0.000000
 40
0.668143
 50
251.015172
 51
286.746179
  0
ARC
  8
daiko
 10
21.067653
 20
17.547417
 30
0.000000
 40
0.625665
 50
251.400770
 51
286.063014
  0
ARC
  8
daiko
 10
20.840940
 20
16.954762
 30
0.000000
 40
0.027162
 50
359.298429
 51
68.896752
  0
ARC
  8
daiko
 10
21.404146
 20
16.068761
 30
0.000000
 40
0.914940
 50
77.891772
 51
98.777213
  0
ARC
  8
daiko
 10
21.413887
 20
16.362675
 30
0.000000
 40
0.608643
 50
70.860394
 51
106.524716
  0
ARC
  8
daiko
 10
21.265706
 20
16.947644
 30
0.000000
 40
0.024978
 50
101.815193
 51
183.363005
  0
ARC
  8
daiko
 10
21.586736
 20
16.938313
 30
0.000000
 40
0.026714
 50
358.629125
 51
69.566415
  0
ARC
  8
daiko
 10
24.962998
 20
4.796835
 30
0.000000
 40
11.241990
 50
94.972335
 51
109.335576
  0
ARC
  8
daiko
 10
25.461532
 20
-0.933296
 30
0.000000
 40
16.993768
 50
81.562300
 51
94.972335
  0
ARC
  8
daiko
 10
26.621372
 20
6.885522
 30
0.000000
 40
9.089392
 50
63.421919
 51
81.562300
  0
ARC
  8
daiko
 10
29.259828
 20
12.159436
 30
0.000000
 40
3.192306
 50
42.385461
 51
63.421919
  0
ARC
  8
daiko
 10
30.357174
 20
13.160940
 30
0.000000
 40
1.706649
 50
25.521073
 51
42.385461
  0
ARC
  8
daiko
 10
25.094573
 20
3.845637
 30
0.000000
 40
12.158332
 50
92.865884
 51
108.374803
  0
ARC
  8
daiko
 10
25.395242
 20
-2.160427
 30
0.000000
 40
18.171917
 50
81.901890
 51
92.865884
  0
ARC
  8
daiko
 10
26.657864
 20
6.713315
 30
0.000000
 40
9.208798
 50
66.349986
 51
81.901890
  0
ARC
  8
daiko
 10
28.598261
 20
11.144163
 30
0.000000
 40
4.371696
 50
48.390180
 51
66.349986
  0
ARC
  8
daiko
 10
30.360194
 20
13.127990
 30
0.000000
 40
1.718400
 50
26.555947
 51
48.390180
  0
ARC
  8
daiko
 10
21.197128
 20
13.139560
 30
0.000000
 40
2.200778
 50
53.490709
 51
74.339485
  0
ARC
  8
daiko
 10
21.590304
 20
14.542037
 30
0.000000
 40
0.744231
 50
74.339485
 51
95.908312
  0
ARC
  8
daiko
 10
22.028790
 20
14.956773
 30
0.000000
 40
0.110207
 50
14.388711
 51
77.027286
  0
ARC
  8
daiko
 10
22.008747
 20
14.860629
 30
0.000000
 40
0.146532
 50
34.692127
 51
72.204550
  0
ARC
  8
daiko
 10
22.328634
 20
15.279904
 30
0.000000
 40
0.386935
 50
251.684111
 51
281.023224
  0
ARC
  8
daiko
 10
22.480383
 20
14.783775
 30
0.000000
 40
0.129706
 50
85.689793
 51
106.156726
  0
ARC
  8
daiko
 10
22.486947
 20
14.870860
 30
0.000000
 40
0.042373
 50
62.537968
 51
85.689793
  0
ARC
  8
daiko
 10
22.313836
 20
15.251548
 30
0.000000
 40
0.373984
 50
256.017598
 51
281.685930
  0
ARC
  8
daiko
 10
23.806100
 20
8.036758
 30
0.000000
 40
6.993516
 50
100.709585
 51
101.685930
  0
ARC
  8
daiko
 10
22.196728
 20
14.887882
 30
0.000000
 40
0.026756
 50
1.634082
 51
67.336036
  0
ARC
  8
daiko
 10
22.407217
 20
14.882921
 30
0.000000
 40
0.017793
 50
105.001911
 51
172.263078
  0
ARC
  8
daiko
 10
21.116370
 20
13.336079
 30
0.000000
 40
0.619558
 50
251.144034
 51
284.644213
  0
ARC
  8
daiko
 10
3.304640
 20
8.178978
 30
0.000000
 40
0.491225
 50
175.396177
 51
250.691888
  0
ARC
  8
daiko
 10
3.141743
 20
8.133682
 30
0.000000
 40
0.484724
 50
174.801009
 51
251.287117
  0
ARC
  8
daiko
 10
7.647104
 20
5.972810
 30
0.000000
 40
0.168526
 50
246.385942
 51
283.172629
  0
ARC
  8
daiko
 10
7.805140
 20
6.036052
 30
0.000000
 40
0.190043
 50
248.530171
 51
281.028401
  0
ARC
  8
daiko
 10
7.822282
 20
5.948098
 30
0.000000
 40
0.100433
 50
281.028401
 51
351.004279
  0
ARC
  8
daiko
 10
8.909293
 20
5.596588
 30
0.000000
 40
0.196488
 50
175.395515
 51
250.692246
  0
ARC
  8
daiko
 10
8.753307
 20
5.555787
 30
0.000000
 40
0.196487
 50
175.395372
 51
250.692390
  0
ARC
  8
daiko
 10
9.604980
 20
4.893586
 30
0.000000
 40
0.382874
 50
246.569417
 51
282.988818
  0
ARC
  8
daiko
 10
10.504487
 20
5.908568
 30
0.000000
 40
1.393081
 50
249.364526
 51
280.146333
  0
ARC
  8
daiko
 10
13.006268
 20
4.181145
 30
0.000000
 40
0.418971
 50
247.171990
 51
286.661120
  0
ARC
  8
daiko
 10
13.050973
 20
4.031769
 30
0.000000
 40
0.263048
 50
286.661120
 51
348.201483
  0
ARC
  8
daiko
 10
12.856504
 20
4.140228
 30
0.000000
 40
0.421317
 50
246.385977
 51
283.172579
  0
ARC
  8
daiko
 10
22.144510
 20
14.046190
 30
0.000000
 40
0.256727
 50
244.270508
 51
281.237628
  0
ARC
  8
daiko
 10
25.518539
 20
-3.122296
 30
0.000000
 40
17.240158
 50
86.171569
 51
101.116559
  0
ARC
  8
daiko
 10
25.604688
 20
-1.834930
 30
0.000000
 40
15.949913
 50
74.656195
 51
86.171569
  0
ARC
  8
daiko
 10
27.734947
 20
5.928661
 30
0.000000
 40
7.899363
 50
65.055280
 51
74.656195
  0
ARC
  8
daiko
 10
29.850375
 20
10.476662
 30
0.000000
 40
2.883453
 50
51.579862
 51
65.055280
  0
ARC
  8
daiko
 10
30.149199
 20
13.279318
 30
0.000000
 40
0.629650
 50
254.974933
 51
288.708542
  0
ARC
  8
daiko
 10
31.068628
 20
10.995620
 30
0.000000
 40
1.835585
 50
76.214156
 51
109.096403
  0
ARC
  8
daiko
 10
30.175631
 20
7.356107
 30
0.000000
 40
5.583051
 50
75.336787
 51
76.214156
  0
ARC
  8
daiko
 10
32.230391
 20
12.334488
 30
0.000000
 40
0.883378
 50
157.120766
 51
184.571015
  0
ARC
  8
daiko
 10
31.608338
 20
12.596988
 30
0.000000
 40
0.208206
 50
119.429303
 51
157.120766
  0
ARC
  8
daiko
 10
31.438620
 20
12.850891
 30
0.000000
 40
0.593483
 50
261.395087
 51
289.241982
  0
ARC
  8
daiko
 10
32.948944
 20
12.754284
 30
0.000000
 40
1.394120
 50
183.243306
 51
199.428313
  0
ARC
  8
daiko
 10
31.657918
 20
12.681126
 30
0.000000
 40
0.101022
 50
146.756694
 51
183.243306
  0
ARC
  8
daiko
 10
31.592050
 20
12.722361
 30
0.000000
 40
0.023385
 50
36.906216
 51
142.781462
  0
ARC
  8
daiko
 10
31.517573
 20
12.660961
 30
0.000000
 40
0.119890
 50
38.996076
 51
53.487250
  0
ARC
  8
daiko
 10
31.733284
 20
12.688889
 30
0.000000
 40
0.017411
 50
125.502562
 51
164.113463
  0
ARC
  8
daiko
 10
30.660489
 20
10.996328
 30
0.000000
 40
2.010533
 50
54.839661
 51
58.091904
  0
ARC
  8
daiko
 10
31.703432
 20
12.476969
 30
0.000000
 40
0.199448
 50
5.605876
 51
54.839661
  0
ARC
  8
daiko
 10
31.613080
 20
12.561119
 30
0.000000
 40
0.172669
 50
22.160633
 51
48.256657
  0
ARC
  8
daiko
 10
31.718115
 20
12.678827
 30
0.000000
 40
0.014911
 50
48.256657
 51
96.069863
  0
ARC
  8
daiko
 10
31.440669
 20
12.480728
 30
0.000000
 40
0.384118
 50
2.382281
 51
29.448270
  0
ARC
  8
daiko
 10
29.024326
 20
9.892586
 30
0.000000
 40
3.876473
 50
16.865053
 51
42.063311
  0
ARC
  8
daiko
 10
25.343831
 20
-2.301960
 30
0.000000
 40
15.579838
 50
89.448470
 51
105.146508
  0
ARC
  8
daiko
 10
25.318056
 20
-4.979498
 30
0.000000
 40
18.257501
 50
75.186655
 51
89.448470
  0
ARC
  8
daiko
 10
22.086943
 20
13.248812
 30
0.000000
 40
0.308333
 50
250.991860
 51
281.492201
  0
ARC
  8
daiko
 10
34.002105
 20
-0.536406
 30
0.000000
 40
4.439628
 50
46.034431
 51
74.510103
  0
ARC
  8
daiko
 10
39.848466
 20
4.752983
 30
0.000000
 40
3.467806
 50
217.144074
 51
255.791829
  0
ARC
  8
daiko
 10
43.542745
 20
1.287433
 30
0.000000
 40
0.888565
 50
255.818709
 51
283.080038
  0
ARC
  8
daiko
 10
45.660298
 20
0.124451
 30
0.000000
 40
0.089296
 50
176.128488
 51
249.624077
  0
ARC
  8
daiko
 10
45.688477
 20
0.200319
 30
0.000000
 40
0.170227
 50
249.624077
 51
298.306374
  0
ARC
  8
daiko
 10
45.765918
 20
0.193621
 30
0.000000
 40
0.193621
 50
252.719459
 51
295.210992
  0
ARC
  8
daiko
 10
48.240000
 20
1.377231
 30
0.000000
 40
0.304644
 50
289.773984
 51
351.195357
  0
ARC
  8
daiko
 10
48.319196
 20
1.345228
 30
0.000000
 40
0.304644
 50
289.773984
 51
351.195357
  0
ARC
  8
daiko
 10
46.478165
 20
2.488139
 30
0.000000
 40
0.817588
 50
255.810472
 51
283.078729
  0
ARC
  8
daiko
 10
46.512594
 20
2.487553
 30
0.000000
 40
0.888565
 50
255.818709
 51
283.080038
  0
ARC
  8
daiko
 10
36.968654
 20
0.434349
 30
0.000000
 40
4.650584
 50
63.769654
 51
89.693385
  0
ARC
  8
daiko
 10
37.358501
 20
1.225565
 30
0.000000
 40
3.768539
 50
44.333939
 51
63.769654
  0
ARC
  8
daiko
 10
42.818314
 20
5.953103
 30
0.000000
 40
3.467806
 50
217.144074
 51
255.791829
  0
ARC
  8
daiko
 10
37.034462
 20
0.797275
 30
0.000000
 40
4.354548
 50
62.551577
 51
89.780670
  0
ARC
  8
daiko
 10
37.012145
 20
0.754311
 30
0.000000
 40
4.402962
 50
45.344582
 51
62.551577
  0
ARC
  8
daiko
 10
42.748040
 20
5.860039
 30
0.000000
 40
3.297271
 50
216.768583
 51
255.989416
  0
ARC
  8
daiko
 10
26.380609
 20
15.392075
 30
0.000000
 40
7.246675
 50
279.235621
 51
291.432874
  0
ARC
  8
daiko
 10
27.685162
 20
12.068863
 30
0.000000
 40
3.676578
 50
291.432874
 51
313.462403
  0
ARC
  8
daiko
 10
29.622625
 20
10.024518
 30
0.000000
 40
0.860000
 50
313.462403
 51
345.519766
  0
ARC
  8
daiko
 10
26.403734
 20
15.394397
 30
0.000000
 40
7.259979
 50
279.998675
 51
293.056226
  0
ARC
  8
daiko
 10
27.744743
 20
12.243780
 30
0.000000
 40
3.835845
 50
293.056226
 51
315.779035
  0
ARC
  8
daiko
 10
29.740703
 20
10.301371
 30
0.000000
 40
1.050740
 50
315.779035
 51
329.004845
  0
ARC
  8
daiko
 10
25.518353
 20
-12.763332
 30
0.000000
 40
23.126933
 50
80.494206
 51
99.505794
  0
ARC
  8
daiko
 10
23.909578
 20
-3.155639
 30
0.000000
 40
13.385479
 50
99.505794
 51
112.011108
  0
ARC
  8
daiko
 10
21.474603
 20
2.867774
 30
0.000000
 40
6.888510
 50
112.011108
 51
134.302670
  0
ARC
  8
daiko
 10
17.855724
 20
6.575830
 30
0.000000
 40
1.707201
 50
134.302670
 51
180.000000
  0
ARC
  8
daiko
 10
17.855724
 20
6.575830
 30
0.000000
 40
1.707201
 50
180.000000
 51
225.697330
  0
ARC
  8
daiko
 10
21.474603
 20
10.283887
 30
0.000000
 40
6.888510
 50
225.697330
 51
247.988892
  0
ARC
  8
daiko
 10
23.909578
 20
16.307300
 30
0.000000
 40
13.385479
 50
247.988892
 51
260.494206
  0
ARC
  8
daiko
 10
25.518353
 20
25.914993
 30
0.000000
 40
23.126933
 50
260.494206
 51
279.505794
  0
ARC
  8
daiko
 10
27.127128
 20
16.307300
 30
0.000000
 40
13.385479
 50
279.505794
 51
292.011108
  0
ARC
  8
daiko
 10
29.562104
 20
10.283887
 30
0.000000
 40
6.888510
 50
292.011108
 51
314.302669
  0
ARC
  8
daiko
 10
33.180982
 20
6.575830
 30
0.000000
 40
1.707201
 50
314.302669
 51
0.000000
  0
ARC
  8
daiko
 10
33.180982
 20
6.575830
 30
0.000000
 40
1.707201
 50
0.000000
 51
45.697331
  0
ARC
  8
daiko
 10
29.562104
 20
2.867774
 30
0.000000
 40
6.888510
 50
45.697331
 51
67.988892
  0
ARC
  8
daiko
 10
27.127128
 20
-3.155639
 30
0.000000
 40
13.385479
 50
67.988892
 51
80.494206
  0
ARC
  8
daiko
 10
21.414081
 20
10.024518
 30
0.000000
 40
0.860000
 50
194.480234
 51
226.537597
  0
ARC
  8
daiko
 10
23.351545
 20
12.068863
 30
0.000000
 40
3.676578
 50
226.537597
 51
248.567126
  0
ARC
  8
daiko
 10
24.656097
 20
15.392075
 30
0.000000
 40
7.246675
 50
248.567126
 51
260.764379
  0
ARC
  8
daiko
 10
25.518353
 20
20.694913
 30
0.000000
 40
12.619159
 50
260.764379
 51
279.235621
  0
ARC
  8
daiko
 10
21.296003
 20
10.301371
 30
0.000000
 40
1.050740
 50
210.995155
 51
224.220965
  0
ARC
  8
daiko
 10
23.291964
 20
12.243780
 30
0.000000
 40
3.835845
 50
224.220965
 51
246.943774
  0
ARC
  8
daiko
 10
24.632972
 20
15.394397
 30
0.000000
 40
7.259979
 50
246.943774
 51
260.001325
  0
ARC
  8
daiko
 10
25.518353
 20
20.416322
 30
0.000000
 40
12.359355
 50
260.001325
 51
279.998675
  0
ARC
  8
daiko
 10
25.518353
 20
-18.117442
 30
0.000000
 40
30.090723
 50
80.502749
 51
99.497251
  0
ARC
  8
daiko
 10
23.426300
 20
-5.612138
 30
0.000000
 40
17.411633
 50
99.497251
 51
111.992882
  0
ARC
  8
daiko
 10
20.259894
 20
2.227796
 30
0.000000
 40
8.956417
 50
111.992882
 51
134.276442
  0
ARC
  8
daiko
 10
15.554069
 20
7.054002
 30
0.000000
 40
2.215716
 50
134.276442
 51
180.000000
  0
ARC
  8
daiko
 10
15.554069
 20
7.054002
 30
0.000000
 40
2.215716
 50
180.000000
 51
180.025150
  0
ARC
  8
daiko
 10
35.482637
 20
7.054002
 30
0.000000
 40
2.215716
 50
359.974850
 51
0.000000
  0
ARC
  8
daiko
 10
35.482637
 20
7.054002
 30
0.000000
 40
2.215716
 50
0.000000
 51
45.723558
  0
ARC
  8
daiko
 10
30.776812
 20
2.227796
 30
0.000000
 40
8.956417
 50
45.723558
 51
68.007118
  0
ARC
  8
daiko
 10
27.610407
 20
-5.612138
 30
0.000000
 40
17.411633
 50
68.007118
 51
80.502749
  0
ARC
  8
daiko
 10
25.518353
 20
-18.435581
 30
0.000000
 40
30.090723
 50
80.502749
 51
99.497251
  0
ARC
  8
daiko
 10
23.426300
 20
-5.930277
 30
0.000000
 40
17.411633
 50
99.497251
 51
111.992882
  0
ARC
  8
daiko
 10
20.259894
 20
1.909657
 30
0.000000
 40
8.956417
 50
111.992882
 51
134.276442
  0
ARC
  8
daiko
 10
15.554069
 20
6.735863
 30
0.000000
 40
2.215716
 50
134.276442
 51
225.723558
  0
ARC
  8
daiko
 10
20.259894
 20
11.562069
 30
0.000000
 40
8.956417
 50
225.723558
 51
248.007118
  0
ARC
  8
daiko
 10
23.426300
 20
19.402003
 30
0.000000
 40
17.411633
 50
248.007118
 51
260.502749
  0
ARC
  8
daiko
 10
25.518353
 20
31.907307
 30
0.000000
 40
30.090723
 50
260.502749
 51
279.497251
  0
ARC
  8
daiko
 10
27.610407
 20
19.402003
 30
0.000000
 40
17.411633
 50
279.497251
 51
291.992882
  0
ARC
  8
daiko
 10
30.776812
 20
11.562069
 30
0.000000
 40
8.956417
 50
291.992882
 51
314.276442
  0
ARC
  8
daiko
 10
35.482637
 20
6.735863
 30
0.000000
 40
2.215716
 50
314.276442
 51
45.723558
  0
ARC
  8
daiko
 10
30.776812
 20
1.909657
 30
0.000000
 40
8.956417
 50
45.723558
 51
68.007118
  0
ARC
  8
daiko
 10
27.610407
 20
-5.930277
 30
0.000000
 40
17.411633
 50
68.007118
 51
80.502749
  0
ARC
  8
daiko
 10
7.353155
 20
7.933530
 30
0.000000
 40
0.207026
 50
329.161690
 51
357.332781
  0
ARC
  8
daiko
 10
7.279121
 20
7.936979
 30
0.000000
 40
0.281140
 50
357.332781
 51
21.441824
  0
ARC
  8
daiko
 10
7.214407
 20
7.911563
 30
0.000000
 40
0.350665
 50
21.441824
 51
41.397785
  0
ARC
  8
daiko
 10
7.146179
 20
7.851417
 30
0.000000
 40
0.441619
 50
41.397785
 51
59.161690
  0
ARC
  8
daiko
 10
7.146179
 20
7.851417
 30
0.000000
 40
0.441619
 50
59.161690
 51
76.925595
  0
ARC
  8
daiko
 10
7.166755
 20
7.940013
 30
0.000000
 40
0.350665
 50
76.925595
 51
90.886517
  0
ARC
  8
daiko
 10
7.314994
 20
7.997064
 30
0.000000
 40
0.281140
 50
300.241089
 51
300.990599
  0
ARC
  8
daiko
 10
7.353155
 20
7.933530
 30
0.000000
 40
0.207026
 50
300.990599
 51
329.161690
  0
ARC
  8
daiko
 10
7.497653
 20
7.972248
 30
0.000000
 40
0.207026
 50
329.161690
 51
357.332781
  0
ARC
  8
daiko
 10
7.423619
 20
7.975697
 30
0.000000
 40
0.281140
 50
357.332781
 51
21.441824
  0
ARC
  8
daiko
 10
7.358905
 20
7.950281
 30
0.000000
 40
0.350665
 50
21.441824
 51
41.397785
  0
ARC
  8
daiko
 10
7.290677
 20
7.890135
 30
0.000000
 40
0.441619
 50
41.397785
 51
59.161690
  0
ARC
  8
daiko
 10
7.290677
 20
7.890135
 30
0.000000
 40
0.441619
 50
59.161690
 51
76.925595
  0
ARC
  8
daiko
 10
7.311253
 20
7.978731
 30
0.000000
 40
0.350665
 50
76.925595
 51
96.881556
  0
ARC
  8
daiko
 10
7.302922
 20
8.047756
 30
0.000000
 40
0.281140
 50
96.881556
 51
120.990599
  0
ARC
  8
daiko
 10
7.264761
 20
8.111290
 30
0.000000
 40
0.207026
 50
120.990599
 51
149.161690
  0
ARC
  8
daiko
 10
7.264761
 20
8.111290
 30
0.000000
 40
0.207026
 50
149.161690
 51
177.332781
  0
ARC
  8
daiko
 10
7.338795
 20
8.107841
 30
0.000000
 40
0.281140
 50
177.332781
 51
201.441824
  0
ARC
  8
daiko
 10
7.403508
 20
8.133257
 30
0.000000
 40
0.350665
 50
201.441824
 51
221.397785
  0
ARC
  8
daiko
 10
7.471736
 20
8.193403
 30
0.000000
 40
0.441619
 50
221.397785
 51
239.161690
  0
ARC
  8
daiko
 10
7.471736
 20
8.193403
 30
0.000000
 40
0.441619
 50
239.161690
 51
256.925595
  0
ARC
  8
daiko
 10
7.451161
 20
8.104807
 30
0.000000
 40
0.350665
 50
256.925595
 51
276.881556
  0
ARC
  8
daiko
 10
7.459491
 20
8.035782
 30
0.000000
 40
0.281140
 50
276.881556
 51
300.990599
  0
ARC
  8
daiko
 10
7.497653
 20
7.972248
 30
0.000000
 40
0.207026
 50
300.990599
 51
329.161690
  0
LINE
  8
daiko
 10
37.698353
 20
7.053029
 30
0.000000
 11
37.698353
 21
6.735863
 31
0.000000
  0
LINE
  8
daiko
 10
13.338353
 20
7.053029
 30
0.000000
 11
13.338353
 21
6.736836
 31
0.000000
  0
TEXT
  8
daiko
 10
0.000000
 20
-11.000000
 30
0.000000
 40
3.000000
  1
DDL-4808FW
  7
BIGFONT
  0
TEXT
  8
daiko
 10
0.000000
 20
-15.000000
 30
0.000000
 40
3.000000
  1
LEDﾀﾞｳﾝﾗｲﾄ
  7
BIGFONT
  0
TEXT
  8
daiko
 10
0.000000
 20
-19.000000
 30
0.000000
 40
3.000000
  1
LDE5.8W
  7
BIGFONT
  0
TEXT
  8
daiko
 10
0.000000
 20
-23.000000
 30
0.000000
 40
3.000000
  1
消費電力 5.8W
  7
BIGFONT
  0
TEXT
  8
daiko
 10
0.000000
 20
-27.000000
 30
0.000000
 40
3.000000
  1
光束値 410lm
  7
BIGFONT
  0
TEXT
  8
daiko
 10
0.000000
 20
-31.000000
 30
0.000000
 40
3.000000
  1
色温度 5000K～2700K Ra83
  7
BIGFONT
  0
TEXT
  8
daiko
 10
0.000000
 20
-35.000000
 30
0.000000
 40
3.000000
  1
施工寸法 φ100 H=80mm
  7
BIGFONT
  0
TEXT
  8
daiko
 10
0.000000
 20
-39.000000
 30
0.000000
 40
3.000000
  1
枠／白塗装
  7
BIGFONT
  0
ENDSEC
  0
EOF
