  0
SECTION
  2
HEADER
  9
$EXTMIN
 10
0.000000
 20
-23.000000
 30
0.000000
  9
$EXTMAX
 10
46.903830
 20
14.521602
 30
0.000000
  0
ENDSEC
  0
SECTION
  2
TABLES
  0
TABLE
  2
LTYPE
 70
     8
  0
LTYPE
  2
CENTER_DASH_DASH
 70
     0
  3
Center_Dash_Dash
 72
    65
 73
     6
 40
22.000000
 49
12.000000
 49
-3.000000
 49
0.500000
 49
-3.000000
 49
0.500000
 49
-3.000000
  0
LTYPE
  2
CONTINUOUS
 70
     0
  3
Solid line
 72
    65
 73
     0
 40
0.000000
  0
LTYPE
  2
DASHED
 70
     0
  3
Dashed
 72
    65
 73
     2
 40
15.000000
 49
12.000000
 49
-3.000000
  0
LTYPE
  2
DASH_CENTER
 70
     0
  3
Dash_Center
 72
    65
 73
     4
 40
36.000000
 49
24.000000
 49
-3.000000
 49
6.000000
 49
-3.000000
  0
LTYPE
  2
DOTTED
 70
     0
  3
Dotted
 72
    65
 73
     2
 40
3.500000
 49
0.500000
 49
-3.000000
  0
LTYPE
  2
DOT_CENTER
 70
     0
  3
Dot_Center
 72
    65
 73
     4
 40
2.000000
 49
1.250000
 49
-0.250000
 49
0.250000
 49
-0.250000
  0
LTYPE
  2
LONG_DASHED
 70
     0
  3
Long_Dashed
 72
    65
 73
     2
 40
2.000000
 49
1.500000
 49
-0.500000
  0
LTYPE
  2
PHANTOM
 70
     0
  3
Phantom
 72
    65
 73
     6
 40
2.500000
 49
1.250000
 49
-0.250000
 49
0.250000
 49
-0.250000
 49
0.250000
 49
-0.250000
  0
ENDTAB
  0
TABLE
  2
STYLE
 70
     3
  0
STYLE
  2
BIGFONT
 70
     0
 40
1.000000
 41
1.000000
 50
0.000000
 71
     0
 42
0.000000
  3
txt
  4
bigfont
  0
STYLE
  2
CONVERTER_1
 70
     0
 40
0.000000
 41
0.900000
 50
0.000000
 71
     0
 42
0.000000
  3
txt.shx
  4

  0
STYLE
  2
STANDARD
 70
     0
 40
0.000000
 41
1.000000
 50
0.000000
 71
     0
 42
0.000000
  3
txt
  4

  0
ENDTAB
  0
TABLE
  2
LAYER
 70
     1
  0
LAYER
  2
daiko
 70
     0
 62
     7
  6
CONTINUOUS
  0
ENDTAB
  0
ENDSEC
  0
SECTION
  2
BLOCKS
  0
BLOCK
  8
daiko
  2
TOP
 70
     0
 10
0.000000
 20
0.000000
 30
0.000000
  3
TOP
  1

  0
ARC
  8
daiko
 10
45.283054
 20
13.536145
 30
0.000000
 40
0.014848
 50
351.637230
 51
72.126694
  0
ARC
  8
daiko
 10
45.383393
 20
13.562679
 30
0.000000
 40
0.015758
 50
354.381962
 51
69.381962
  0
ARC
  8
daiko
 10
46.147796
 20
12.853961
 30
0.000000
 40
0.214027
 50
1.817616
 51
73.182384
  0
ARC
  8
daiko
 10
46.250173
 20
12.881915
 30
0.000000
 40
0.212958
 50
1.610697
 51
73.389303
  0
ARC
  8
daiko
 10
46.709808
 20
13.006896
 30
0.000000
 40
0.209250
 50
0.872680
 51
74.127320
  0
ARC
  8
daiko
 10
45.960447
 20
11.449940
 30
0.000000
 40
0.415184
 50
292.586893
 51
345.124181
  0
ARC
  8
daiko
 10
46.199283
 20
11.360686
 30
0.000000
 40
0.263946
 50
266.373290
 51
2.131572
  0
ARC
  8
daiko
 10
46.579038
 20
11.545645
 30
0.000000
 40
0.344096
 50
287.095646
 51
351.146287
  0
ARC
  8
daiko
 10
1.357337
 20
1.067342
 30
0.000000
 40
0.076673
 50
251.100838
 51
3.899162
  0
ARC
  8
daiko
 10
1.292742
 20
2.695228
 30
0.000000
 40
0.141131
 50
1.363308
 51
73.636692
  0
ARC
  8
daiko
 10
4.773701
 20
0.312959
 30
0.000000
 40
0.309547
 50
260.662858
 51
354.337142
  0
ARC
  8
daiko
 10
5.262351
 20
0.395246
 30
0.000000
 40
0.275532
 50
285.697903
 51
1.944632
  0
ARC
  8
daiko
 10
5.345356
 20
0.452657
 30
0.000000
 40
0.294442
 50
284.015132
 51
355.927793
  0
ARC
  8
daiko
 10
5.423842
 20
1.941364
 30
0.000000
 40
0.215354
 50
2.070709
 51
72.929291
  0
ARC
  8
daiko
 10
5.325359
 20
1.916398
 30
0.000000
 40
0.212439
 50
1.509446
 51
73.490554
  0
ARC
  8
daiko
 10
4.865699
 20
1.791399
 30
0.000000
 40
0.216201
 50
2.230194
 51
72.769806
  0
LINE
  8
daiko
 10
45.297744
 20
13.533985
 30
0.000000
 11
45.424407
 21
13.567924
 31
0.000000
  0
LINE
  8
daiko
 10
46.469361
 20
13.046951
 30
0.000000
 11
46.795842
 21
13.134431
 31
0.000000
  0
LINE
  8
daiko
 10
46.680192
 20
11.216753
 30
0.000000
 11
46.272218
 21
11.107017
 31
0.000000
  0
LINE
  8
daiko
 10
3.713773
 20
2.391594
 30
0.000000
 11
3.587109
 21
2.357654
 31
0.000000
  0
LINE
  8
daiko
 10
3.587109
 20
2.357654
 30
0.000000
 11
3.587109
 21
2.095391
 31
0.000000
  0
LINE
  8
daiko
 10
3.560419
 20
2.110599
 30
0.000000
 11
3.560419
 21
2.364806
 31
0.000000
  0
LINE
  8
daiko
 10
5.406129
 20
2.044091
 30
0.000000
 11
5.103184
 21
1.962917
 31
0.000000
  0
LINE
  8
daiko
 10
5.336900
 20
0.129991
 30
0.000000
 11
4.821043
 21
0.007054
 31
0.000000
  0
LINE
  8
daiko
 10
5.639055
 20
2.106503
 30
0.000000
 11
46.149498
 21
12.961244
 31
0.000000
  0
LINE
  8
daiko
 10
2.801797
 20
2.839593
 30
0.000000
 11
43.625788
 21
13.778348
 31
0.000000
  0
LINE
  8
daiko
 10
2.750480
 20
2.853343
 30
0.000000
 11
43.574472
 21
13.792099
 31
0.000000
  0
LINE
  8
daiko
 10
2.560236
 20
2.904319
 30
0.000000
 11
43.384228
 21
13.843074
 31
0.000000
  0
LINE
  8
daiko
 10
2.497805
 20
2.921047
 30
0.000000
 11
43.321796
 21
13.859803
 31
0.000000
  0
LINE
  8
daiko
 10
43.904448
 20
13.920894
 30
0.000000
 11
45.287611
 21
13.550276
 31
0.000000
  0
LINE
  8
daiko
 10
43.853782
 20
13.920894
 30
0.000000
 11
43.904448
 21
13.920894
 31
0.000000
  0
LINE
  8
daiko
 10
43.853782
 20
13.920894
 30
0.000000
 11
43.524458
 21
13.832651
 31
0.000000
  0
LINE
  8
daiko
 10
45.297744
 20
13.533985
 30
0.000000
 11
43.853782
 21
13.920894
 31
0.000000
  0
LINE
  8
daiko
 10
45.424407
 20
13.567924
 30
0.000000
 11
46.767038
 21
13.208168
 31
0.000000
  0
LINE
  8
daiko
 10
41.396514
 20
14.402832
 30
0.000000
 11
41.852502
 21
14.525014
 31
0.000000
  0
LINE
  8
daiko
 10
46.311051
 20
13.085986
 30
0.000000
 11
41.396514
 21
14.402832
 31
0.000000
  0
LINE
  8
daiko
 10
46.209720
 20
13.058835
 30
0.000000
 11
44.867089
 21
13.418591
 31
0.000000
  0
LINE
  8
daiko
 10
46.361716
 20
11.343352
 30
0.000000
 11
46.361716
 21
12.860749
 31
0.000000
  0
LINE
  8
daiko
 10
46.463047
 20
12.887901
 30
0.000000
 11
46.463047
 21
11.370503
 31
0.000000
  0
LINE
  8
daiko
 10
4.144428
 20
2.506987
 30
0.000000
 11
44.867089
 21
13.418591
 31
0.000000
  0
LINE
  8
daiko
 10
44.887355
 20
13.440313
 30
0.000000
 11
4.063364
 21
2.501557
 31
0.000000
  0
LINE
  8
daiko
 10
41.563710
 20
14.330881
 30
0.000000
 11
44.887355
 21
13.440313
 31
0.000000
  0
LINE
  8
daiko
 10
41.406647
 20
14.372965
 30
0.000000
 11
41.406647
 21
14.290131
 31
0.000000
  0
LINE
  8
daiko
 10
41.345849
 20
14.389256
 30
0.000000
 11
41.406647
 21
14.372965
 31
0.000000
  0
LINE
  8
daiko
 10
0.739718
 20
3.392125
 30
0.000000
 11
41.563710
 21
14.330881
 31
0.000000
  0
LINE
  8
daiko
 10
41.406647
 20
14.372965
 30
0.000000
 11
0.582656
 21
3.434210
 31
0.000000
  0
LINE
  8
daiko
 10
0.521857
 20
3.450501
 30
0.000000
 11
41.345849
 21
14.389256
 31
0.000000
  0
LINE
  8
daiko
 10
0.521857
 20
3.450501
 30
0.000000
 11
0.521857
 21
3.423349
 31
0.000000
  0
LINE
  8
daiko
 10
0.739718
 20
3.392125
 30
0.000000
 11
4.063364
 21
2.501557
 31
0.000000
  0
LINE
  8
daiko
 10
0.739718
 20
3.392125
 30
0.000000
 11
0.739718
 21
3.364974
 31
0.000000
  0
LINE
  8
daiko
 10
0.582656
 20
3.434210
 30
0.000000
 11
0.582656
 21
3.407514
 31
0.000000
  0
LINE
  8
daiko
 10
0.521857
 20
3.450501
 30
0.000000
 11
0.582656
 21
3.434210
 31
0.000000
  0
LINE
  8
daiko
 10
5.487059
 20
2.147230
 30
0.000000
 11
4.144428
 21
2.506987
 31
0.000000
  0
LINE
  8
daiko
 10
5.639055
 20
0.431748
 30
0.000000
 11
5.639055
 21
1.949145
 31
0.000000
  0
LINE
  8
daiko
 10
5.397252
 20
0.154997
 30
0.000000
 11
46.119912
 21
11.066601
 31
0.000000
  0
LINE
  8
daiko
 10
2.626614
 20
0.569367
 30
0.000000
 11
2.530927
 21
0.543728
 31
0.000000
  0
LINE
  8
daiko
 10
0.471192
 20
3.436925
 30
0.000000
 11
0.015204
 21
3.314743
 31
0.000000
  0
LINE
  8
daiko
 10
5.385729
 20
2.120079
 30
0.000000
 11
0.471192
 21
3.436925
 31
0.000000
  0
LINE
  8
daiko
 10
5.537724
 20
1.921994
 30
0.000000
 11
5.537724
 21
0.404596
 31
0.000000
  0
LINE
  8
daiko
 10
3.587109
 20
2.357654
 30
0.000000
 11
4.929741
 21
1.997897
 31
0.000000
  0
LINE
  8
daiko
 10
2.269811
 20
2.778502
 30
0.000000
 11
2.269811
 21
2.764926
 31
0.000000
  0
LINE
  8
daiko
 10
2.269811
 20
2.778502
 30
0.000000
 11
2.599136
 21
2.866744
 31
0.000000
  0
LINE
  8
daiko
 10
3.713773
 20
2.391594
 30
0.000000
 11
2.269811
 21
2.778502
 31
0.000000
  0
LINE
  8
daiko
 10
3.652974
 20
2.394309
 30
0.000000
 11
2.269811
 21
2.764926
 31
0.000000
  0
LINE
  8
daiko
 10
45.388942
 20
13.577428
 30
0.000000
 11
41.852502
 21
14.525014
 31
0.000000
  0
LINE
  8
daiko
 10
46.919034
 20
13.010083
 30
0.000000
 11
46.919034
 21
11.492685
 31
0.000000
  0
LINE
  8
daiko
 10
5.081737
 20
1.799812
 30
0.000000
 11
5.081737
 21
0.282415
 31
0.000000
  0
LINE
  8
daiko
 10
1.332502
 20
0.994802
 30
0.000000
 11
0.015204
 21
1.347771
 31
0.000000
  0
LINE
  8
daiko
 10
1.433833
 20
2.698586
 30
0.000000
 11
1.433833
 21
1.072556
 31
0.000000
  0
LINE
  8
daiko
 10
0.015204
 20
3.183612
 30
0.000000
 11
1.332502
 21
2.830643
 31
0.000000
  0
LINE
  8
daiko
 10
3.560419
 20
2.110599
 30
0.000000
 11
2.535044
 21
0.546695
 31
0.000000
  0
LINE
  8
daiko
 10
3.560419
 20
2.364806
 30
0.000000
 11
0.015204
 21
3.314743
 31
0.000000
  0
LINE
  8
daiko
 10
0.015204
 20
1.216639
 30
0.000000
 11
2.526269
 21
0.543802
 31
0.000000
  0
LINE
  8
daiko
 10
0.015204
 20
1.216639
 30
0.000000
 11
0.015204
 21
3.314743
 31
0.000000
  0
LINE
  8
daiko
 10
4.723479
 20
0.007514
 30
0.000000
 11
2.592554
 21
0.578493
 31
0.000000
  0
LINE
  8
daiko
 10
3.587109
 20
2.095391
 30
0.000000
 11
2.592554
 21
0.578493
 31
0.000000
  0
ENDBLK
  0
ENDSEC
  0
SECTION
  2
ENTITIES
  0
INSERT
  8
daiko
  2
TOP
 10
-0.015204
 20
-0.003412
 30
0.000000
  0
TEXT
  8
daiko
 10
0.000000
 20
-10.000000
 30
0.000000
 40
4.000000
  1
DSY-4567FW
  7
BIGFONT
  0
TEXT
  8
daiko
 10
0.000000
 20
-14.000000
 30
0.000000
 40
3.000000
  1
LED33W         2700Kü`2000K
  7
BIGFONT
  0
TEXT
  8
daiko
 10
0.000000
 20
-18.000000
 30
0.000000
 40
3.000000
  1
ëëÉFÉ½ Ra83    öÆ
  7
BIGFONT
  0
TEXT
  8
daiko
 10
0.000000
 20
-22.000000
 30
0.000000
 40
3.000000
  1
ïð100 ÆÀ1213 ìé40mm
  7
BIGFONT
  0
ENDSEC
  0
EOF
