  0
SECTION
  2
HEADER
  9
$EXTMIN
 10
0.000000
 20
-23.000000
 30
0.000000
  9
$EXTMAX
 10
48.096825
 20
15.299552
 30
0.000000
  0
ENDSEC
  0
SECTION
  2
TABLES
  0
TABLE
  2
LTYPE
 70
     8
  0
LTYPE
  2
CENTER_DASH_DASH
 70
     0
  3
Center_Dash_Dash
 72
    65
 73
     6
 40
22.000000
 49
12.000000
 49
-3.000000
 49
0.500000
 49
-3.000000
 49
0.500000
 49
-3.000000
  0
LTYPE
  2
CONTINUOUS
 70
     0
  3
Solid line
 72
    65
 73
     0
 40
0.000000
  0
LTYPE
  2
DASHED
 70
     0
  3
Dashed
 72
    65
 73
     2
 40
15.000000
 49
12.000000
 49
-3.000000
  0
LTYPE
  2
DASH_CENTER
 70
     0
  3
Dash_Center
 72
    65
 73
     4
 40
36.000000
 49
24.000000
 49
-3.000000
 49
6.000000
 49
-3.000000
  0
LTYPE
  2
DOTTED
 70
     0
  3
Dotted
 72
    65
 73
     2
 40
3.500000
 49
0.500000
 49
-3.000000
  0
LTYPE
  2
DOT_CENTER
 70
     0
  3
Dot_Center
 72
    65
 73
     4
 40
2.000000
 49
1.250000
 49
-0.250000
 49
0.250000
 49
-0.250000
  0
LTYPE
  2
LONG_DASHED
 70
     0
  3
Long_Dashed
 72
    65
 73
     2
 40
2.000000
 49
1.500000
 49
-0.500000
  0
LTYPE
  2
PHANTOM
 70
     0
  3
Phantom
 72
    65
 73
     6
 40
2.500000
 49
1.250000
 49
-0.250000
 49
0.250000
 49
-0.250000
 49
0.250000
 49
-0.250000
  0
ENDTAB
  0
TABLE
  2
STYLE
 70
     3
  0
STYLE
  2
BIGFONT
 70
     0
 40
1.000000
 41
1.000000
 50
0.000000
 71
     0
 42
0.000000
  3
txt
  4
bigfont
  0
STYLE
  2
CONVERTER_1
 70
     0
 40
0.000000
 41
0.900000
 50
0.000000
 71
     0
 42
0.000000
  3
txt.shx
  4

  0
STYLE
  2
STANDARD
 70
     0
 40
0.000000
 41
1.000000
 50
0.000000
 71
     0
 42
0.000000
  3
txt
  4

  0
ENDTAB
  0
TABLE
  2
LAYER
 70
     1
  0
LAYER
  2
daiko
 70
     0
 62
     7
  6
CONTINUOUS
  0
ENDTAB
  0
ENDSEC
  0
SECTION
  2
BLOCKS
  0
BLOCK
  8
daiko
  2
TOP
 70
     0
 10
0.000000
 20
0.000000
 30
0.000000
  3
TOP
  1

  0
ARC
  8
daiko
 10
46.095866
 20
14.082939
 30
0.000000
 40
0.018331
 50
351.637230
 51
72.126694
  0
ARC
  8
daiko
 10
46.219741
 20
14.115698
 30
0.000000
 40
0.019454
 50
354.381962
 51
69.381962
  0
ARC
  8
daiko
 10
47.163449
 20
13.240737
 30
0.000000
 40
0.264231
 50
1.817616
 51
73.182384
  0
ARC
  8
daiko
 10
47.289840
 20
13.275248
 30
0.000000
 40
0.262911
 50
1.610697
 51
73.389303
  0
ARC
  8
daiko
 10
47.857291
 20
13.429545
 30
0.000000
 40
0.258334
 50
0.872680
 51
74.127320
  0
ARC
  8
daiko
 10
46.932153
 20
11.507377
 30
0.000000
 40
0.512573
 50
292.586893
 51
345.124181
  0
ARC
  8
daiko
 10
47.227013
 20
11.397187
 30
0.000000
 40
0.325859
 50
266.373290
 51
2.131572
  0
ARC
  8
daiko
 10
47.695847
 20
11.625532
 30
0.000000
 40
0.424810
 50
287.095646
 51
351.146287
  0
ARC
  8
daiko
 10
1.675725
 20
1.317706
 30
0.000000
 40
0.094658
 50
251.100838
 51
3.899162
  0
ARC
  8
daiko
 10
1.595978
 20
3.327443
 30
0.000000
 40
0.174236
 50
1.363308
 51
73.636692
  0
ARC
  8
daiko
 10
5.893457
 20
0.386369
 30
0.000000
 40
0.382156
 50
260.662858
 51
354.337142
  0
ARC
  8
daiko
 10
6.496730
 20
0.487958
 30
0.000000
 40
0.340163
 50
285.697903
 51
1.944632
  0
ARC
  8
daiko
 10
6.599206
 20
0.558836
 30
0.000000
 40
0.363509
 50
284.015132
 51
355.927793
  0
ARC
  8
daiko
 10
6.696101
 20
2.396746
 30
0.000000
 40
0.265869
 50
2.070709
 51
72.929291
  0
ARC
  8
daiko
 10
6.574517
 20
2.365923
 30
0.000000
 40
0.262271
 50
1.509446
 51
73.490554
  0
ARC
  8
daiko
 10
6.007036
 20
2.211604
 30
0.000000
 40
0.266915
 50
2.230194
 51
72.769806
  0
LINE
  8
daiko
 10
46.114002
 20
14.080273
 30
0.000000
 11
46.270376
 21
14.122173
 31
0.000000
  0
LINE
  8
daiko
 10
47.560443
 20
13.478996
 30
0.000000
 11
47.963506
 21
13.586996
 31
0.000000
  0
LINE
  8
daiko
 10
47.820727
 20
11.219492
 30
0.000000
 11
47.317056
 21
11.084015
 31
0.000000
  0
LINE
  8
daiko
 10
4.584905
 20
2.952585
 30
0.000000
 11
4.428530
 21
2.910684
 31
0.000000
  0
LINE
  8
daiko
 10
4.428530
 20
2.910684
 30
0.000000
 11
4.428530
 21
2.586903
 31
0.000000
  0
LINE
  8
daiko
 10
4.395579
 20
2.605678
 30
0.000000
 11
4.395579
 21
2.919514
 31
0.000000
  0
LINE
  8
daiko
 10
6.674234
 20
2.523569
 30
0.000000
 11
6.300227
 21
2.423354
 31
0.000000
  0
LINE
  8
daiko
 10
6.588766
 20
0.160483
 30
0.000000
 11
5.951905
 21
0.008709
 31
0.000000
  0
LINE
  8
daiko
 10
6.961796
 20
2.600621
 30
0.000000
 11
47.165550
 21
13.373185
 31
0.000000
  0
LINE
  8
daiko
 10
3.459009
 20
3.505670
 30
0.000000
 11
44.049859
 21
14.381956
 31
0.000000
  0
LINE
  8
daiko
 10
3.395655
 20
3.522646
 30
0.000000
 11
43.986505
 21
14.398931
 31
0.000000
  0
LINE
  8
daiko
 10
3.160786
 20
3.585579
 30
0.000000
 11
43.751636
 21
14.461864
 31
0.000000
  0
LINE
  8
daiko
 10
3.083710
 20
3.606231
 30
0.000000
 11
43.674560
 21
14.482517
 31
0.000000
  0
LINE
  8
daiko
 10
44.393883
 20
14.557937
 30
0.000000
 11
46.101492
 21
14.100385
 31
0.000000
  0
LINE
  8
daiko
 10
44.331333
 20
14.557937
 30
0.000000
 11
44.393883
 21
14.557937
 31
0.000000
  0
LINE
  8
daiko
 10
44.331333
 20
14.557937
 30
0.000000
 11
43.924759
 21
14.448996
 31
0.000000
  0
LINE
  8
daiko
 10
46.114002
 20
14.080273
 30
0.000000
 11
44.331333
 21
14.557937
 31
0.000000
  0
LINE
  8
daiko
 10
46.270376
 20
14.122173
 30
0.000000
 11
47.927945
 21
13.678029
 31
0.000000
  0
LINE
  8
daiko
 10
41.297668
 20
15.152923
 30
0.000000
 11
41.860616
 21
15.303765
 31
0.000000
  0
LINE
  8
daiko
 10
47.364997
 20
13.527187
 30
0.000000
 11
41.297668
 21
15.152923
 31
0.000000
  0
LINE
  8
daiko
 10
47.239898
 20
13.493667
 30
0.000000
 11
45.582328
 21
13.937811
 31
0.000000
  0
LINE
  8
daiko
 10
47.427547
 20
11.375787
 30
0.000000
 11
47.427547
 21
13.249118
 31
0.000000
  0
LINE
  8
daiko
 10
47.552647
 20
13.282638
 30
0.000000
 11
47.552647
 21
11.409307
 31
0.000000
  0
LINE
  8
daiko
 10
5.116578
 20
3.095046
 30
0.000000
 11
45.582328
 21
13.937811
 31
0.000000
  0
LINE
  8
daiko
 10
45.607348
 20
13.964628
 30
0.000000
 11
5.016498
 21
3.088342
 31
0.000000
  0
LINE
  8
daiko
 10
41.504083
 20
15.064094
 30
0.000000
 11
45.607348
 21
13.964628
 31
0.000000
  0
LINE
  8
daiko
 10
41.310178
 20
15.116051
 30
0.000000
 11
41.310178
 21
15.013786
 31
0.000000
  0
LINE
  8
daiko
 10
41.235118
 20
15.136163
 30
0.000000
 11
41.310178
 21
15.116051
 31
0.000000
  0
LINE
  8
daiko
 10
0.913232
 20
4.187809
 30
0.000000
 11
41.504083
 21
15.064094
 31
0.000000
  0
LINE
  8
daiko
 10
41.310178
 20
15.116051
 30
0.000000
 11
0.719328
 21
4.239765
 31
0.000000
  0
LINE
  8
daiko
 10
0.644268
 20
4.259878
 30
0.000000
 11
41.235118
 21
15.136163
 31
0.000000
  0
LINE
  8
daiko
 10
0.644268
 20
4.259878
 30
0.000000
 11
0.644268
 21
4.226357
 31
0.000000
  0
LINE
  8
daiko
 10
0.913232
 20
4.187809
 30
0.000000
 11
5.016498
 21
3.088342
 31
0.000000
  0
LINE
  8
daiko
 10
0.913232
 20
4.187809
 30
0.000000
 11
0.913232
 21
4.154289
 31
0.000000
  0
LINE
  8
daiko
 10
0.719328
 20
4.239765
 30
0.000000
 11
0.719328
 21
4.206807
 31
0.000000
  0
LINE
  8
daiko
 10
0.644268
 20
4.259878
 30
0.000000
 11
0.719328
 21
4.239765
 31
0.000000
  0
LINE
  8
daiko
 10
6.774147
 20
2.650902
 30
0.000000
 11
5.116578
 21
3.095046
 31
0.000000
  0
LINE
  8
daiko
 10
6.961796
 20
0.533022
 30
0.000000
 11
6.961796
 21
2.406352
 31
0.000000
  0
LINE
  8
daiko
 10
6.663274
 20
0.191354
 30
0.000000
 11
47.129024
 21
11.034119
 31
0.000000
  0
LINE
  8
daiko
 10
3.242733
 20
0.702922
 30
0.000000
 11
3.124601
 21
0.671269
 31
0.000000
  0
LINE
  8
daiko
 10
0.581718
 20
4.243117
 30
0.000000
 11
0.018770
 21
4.092276
 31
0.000000
  0
LINE
  8
daiko
 10
6.649048
 20
2.617381
 30
0.000000
 11
0.581718
 21
4.243117
 31
0.000000
  0
LINE
  8
daiko
 10
6.836697
 20
2.372832
 30
0.000000
 11
6.836697
 21
0.499501
 31
0.000000
  0
LINE
  8
daiko
 10
4.428530
 20
2.910684
 30
0.000000
 11
6.086100
 21
2.466540
 31
0.000000
  0
LINE
  8
daiko
 10
2.802236
 20
3.430249
 30
0.000000
 11
2.802236
 21
3.413489
 31
0.000000
  0
LINE
  8
daiko
 10
2.802236
 20
3.430249
 30
0.000000
 11
3.208809
 21
3.539190
 31
0.000000
  0
LINE
  8
daiko
 10
4.584905
 20
2.952585
 30
0.000000
 11
2.802236
 21
3.430249
 31
0.000000
  0
LINE
  8
daiko
 10
4.509845
 20
2.955937
 30
0.000000
 11
2.802236
 21
3.413489
 31
0.000000
  0
LINE
  8
daiko
 10
46.226591
 20
14.133905
 30
0.000000
 11
41.860616
 21
15.303765
 31
0.000000
  0
LINE
  8
daiko
 10
48.115595
 20
13.433479
 30
0.000000
 11
48.115595
 21
11.560149
 31
0.000000
  0
LINE
  8
daiko
 10
6.273749
 20
2.221991
 30
0.000000
 11
6.273749
 21
0.348660
 31
0.000000
  0
LINE
  8
daiko
 10
1.645065
 20
1.228150
 30
0.000000
 11
0.018770
 21
1.663915
 31
0.000000
  0
LINE
  8
daiko
 10
1.770164
 20
3.331588
 30
0.000000
 11
1.770164
 21
1.324143
 31
0.000000
  0
LINE
  8
daiko
 10
0.018770
 20
3.930385
 30
0.000000
 11
1.645065
 21
3.494621
 31
0.000000
  0
LINE
  8
daiko
 10
4.395579
 20
2.605678
 30
0.000000
 11
3.129684
 21
0.674933
 31
0.000000
  0
LINE
  8
daiko
 10
4.395579
 20
2.919514
 30
0.000000
 11
0.018770
 21
4.092276
 31
0.000000
  0
LINE
  8
daiko
 10
0.018770
 20
1.502024
 30
0.000000
 11
3.118850
 21
0.671360
 31
0.000000
  0
LINE
  8
daiko
 10
0.018770
 20
1.502024
 30
0.000000
 11
0.018770
 21
4.092276
 31
0.000000
  0
LINE
  8
daiko
 10
5.831455
 20
0.009276
 30
0.000000
 11
3.200684
 21
0.714189
 31
0.000000
  0
LINE
  8
daiko
 10
4.428530
 20
2.586903
 30
0.000000
 11
3.200684
 21
0.714189
 31
0.000000
  0
ENDBLK
  0
ENDSEC
  0
SECTION
  2
ENTITIES
  0
INSERT
  8
daiko
  2
TOP
 10
-0.018770
 20
-0.004213
 30
0.000000
  0
TEXT
  8
daiko
 10
0.000000
 20
-10.000000
 30
0.000000
 40
4.000000
  1
DSY-4566FW
  7
BIGFONT
  0
TEXT
  8
daiko
 10
0.000000
 20
-14.000000
 30
0.000000
 40
3.000000
  1
LED25W         2700Kü`2000K
  7
BIGFONT
  0
TEXT
  8
daiko
 10
0.000000
 20
-18.000000
 30
0.000000
 40
3.000000
  1
ëëÉFÉ½ Ra83    öÆ
  7
BIGFONT
  0
TEXT
  8
daiko
 10
0.000000
 20
-22.000000
 30
0.000000
 40
3.000000
  1
ïð100 ÆÀ913 ìé40mm
  7
BIGFONT
  0
ENDSEC
  0
EOF
