  0
SECTION
  2
HEADER
  9
$EXTMIN
 10
0.000000
 20
-23.000000
 30
0.000000
  9
$EXTMAX
 10
47.880000
 20
16.138113
 30
0.000000
  0
ENDSEC
  0
SECTION
  2
TABLES
  0
TABLE
  2
LTYPE
 70
     8
  0
LTYPE
  2
CENTER_DASH_DASH
 70
     0
  3
Center_Dash_Dash
 72
    65
 73
     6
 40
22.000000
 49
12.000000
 49
-3.000000
 49
0.500000
 49
-3.000000
 49
0.500000
 49
-3.000000
  0
LTYPE
  2
CONTINUOUS
 70
     0
  3
Solid line
 72
    65
 73
     0
 40
0.000000
  0
LTYPE
  2
DASHED
 70
     0
  3
Dashed
 72
    65
 73
     2
 40
15.000000
 49
12.000000
 49
-3.000000
  0
LTYPE
  2
DASH_CENTER
 70
     0
  3
Dash_Center
 72
    65
 73
     4
 40
36.000000
 49
24.000000
 49
-3.000000
 49
6.000000
 49
-3.000000
  0
LTYPE
  2
DOTTED
 70
     0
  3
Dotted
 72
    65
 73
     2
 40
3.500000
 49
0.500000
 49
-3.000000
  0
LTYPE
  2
DOT_CENTER
 70
     0
  3
Dot_Center
 72
    65
 73
     4
 40
2.000000
 49
1.250000
 49
-0.250000
 49
0.250000
 49
-0.250000
  0
LTYPE
  2
LONG_DASHED
 70
     0
  3
Long_Dashed
 72
    65
 73
     2
 40
2.000000
 49
1.500000
 49
-0.500000
  0
LTYPE
  2
PHANTOM
 70
     0
  3
Phantom
 72
    65
 73
     6
 40
2.500000
 49
1.250000
 49
-0.250000
 49
0.250000
 49
-0.250000
 49
0.250000
 49
-0.250000
  0
ENDTAB
  0
TABLE
  2
STYLE
 70
     3
  0
STYLE
  2
BIGFONT
 70
     0
 40
1.000000
 41
1.000000
 50
0.000000
 71
     0
 42
0.000000
  3
txt
  4
bigfont
  0
STYLE
  2
CONVERTER_1
 70
     0
 40
0.000000
 41
0.900000
 50
0.000000
 71
     0
 42
0.000000
  3
txt.shx
  4

  0
STYLE
  2
STANDARD
 70
     0
 40
0.000000
 41
1.000000
 50
0.000000
 71
     0
 42
0.000000
  3
txt
  4

  0
ENDTAB
  0
TABLE
  2
LAYER
 70
     1
  0
LAYER
  2
daiko
 70
     0
 62
     7
  6
CONTINUOUS
  0
ENDTAB
  0
ENDSEC
  0
SECTION
  2
BLOCKS
  0
BLOCK
  8
daiko
  2
TOP
 70
     0
 10
0.000000
 20
0.000000
 30
0.000000
  3
TOP
  1

  0
ARC
  8
daiko
 10
45.135201
 20
14.469234
 30
0.000000
 40
0.025145
 50
351.637230
 51
72.126694
  0
ARC
  8
daiko
 10
45.305126
 20
14.514170
 30
0.000000
 40
0.026686
 50
354.381962
 51
69.381962
  0
ARC
  8
daiko
 10
46.599649
 20
13.313950
 30
0.000000
 40
0.362457
 50
1.817616
 51
73.182384
  0
ARC
  8
daiko
 10
46.773025
 20
13.361290
 30
0.000000
 40
0.360646
 50
1.610697
 51
73.389303
  0
ARC
  8
daiko
 10
47.551422
 20
13.572946
 30
0.000000
 40
0.354367
 50
0.872680
 51
74.127320
  0
ARC
  8
daiko
 10
46.282371
 20
10.936228
 30
0.000000
 40
0.703119
 50
292.586893
 51
345.124181
  0
ARC
  8
daiko
 10
46.686843
 20
10.785075
 30
0.000000
 40
0.446995
 50
266.373290
 51
2.131572
  0
ARC
  8
daiko
 10
47.329962
 20
11.098306
 30
0.000000
 40
0.582730
 50
287.095646
 51
351.146287
  0
ARC
  8
daiko
 10
2.298663
 20
1.807552
 30
0.000000
 40
0.129847
 50
251.100838
 51
3.899162
  0
ARC
  8
daiko
 10
2.189270
 20
4.564393
 30
0.000000
 40
0.239007
 50
1.363308
 51
73.636692
  0
ARC
  8
daiko
 10
8.084304
 20
0.529999
 30
0.000000
 40
0.524220
 50
260.662858
 51
354.337142
  0
ARC
  8
daiko
 10
8.911838
 20
0.669353
 30
0.000000
 40
0.466616
 50
285.697903
 51
1.944632
  0
ARC
  8
daiko
 10
9.052408
 20
0.766579
 30
0.000000
 40
0.498640
 50
284.015132
 51
355.927793
  0
ARC
  8
daiko
 10
9.185323
 20
3.287717
 30
0.000000
 40
0.364704
 50
2.070709
 51
72.929291
  0
ARC
  8
daiko
 10
9.018542
 20
3.245437
 30
0.000000
 40
0.359768
 50
1.509446
 51
73.490554
  0
ARC
  8
daiko
 10
8.240105
 20
3.033750
 30
0.000000
 40
0.366138
 50
2.230194
 51
72.769806
  0
LINE
  8
daiko
 10
45.160079
 20
14.465577
 30
0.000000
 11
45.374584
 21
14.523053
 31
0.000000
  0
LINE
  8
daiko
 10
47.144223
 20
13.640780
 30
0.000000
 11
47.697121
 21
13.788929
 31
0.000000
  0
LINE
  8
daiko
 10
47.501266
 20
10.541324
 30
0.000000
 11
46.810360
 21
10.355484
 31
0.000000
  0
LINE
  8
daiko
 10
6.289307
 20
4.050185
 30
0.000000
 11
6.074801
 21
3.992708
 31
0.000000
  0
LINE
  8
daiko
 10
6.074801
 20
3.992708
 30
0.000000
 11
6.074801
 21
3.548564
 31
0.000000
  0
LINE
  8
daiko
 10
6.029601
 20
3.574318
 30
0.000000
 11
6.029601
 21
4.004820
 31
0.000000
  0
LINE
  8
daiko
 10
9.155327
 20
3.461686
 30
0.000000
 11
8.642287
 21
3.324217
 31
0.000000
  0
LINE
  8
daiko
 10
9.038088
 20
0.220141
 30
0.000000
 11
8.164479
 21
0.011946
 31
0.000000
  0
LINE
  8
daiko
 10
9.549789
 20
3.567382
 30
0.000000
 11
46.602532
 21
13.495634
 31
0.000000
  0
LINE
  8
daiko
 10
4.744868
 20
4.808875
 30
0.000000
 11
42.328607
 21
14.879408
 31
0.000000
  0
LINE
  8
daiko
 10
4.657963
 20
4.832161
 30
0.000000
 11
42.241702
 21
14.902694
 31
0.000000
  0
LINE
  8
daiko
 10
4.335783
 20
4.918489
 30
0.000000
 11
41.919522
 21
14.989022
 31
0.000000
  0
LINE
  8
daiko
 10
4.230055
 20
4.946819
 30
0.000000
 11
41.813794
 21
15.017352
 31
0.000000
  0
LINE
  8
daiko
 10
42.800519
 20
15.120810
 30
0.000000
 11
45.142918
 21
14.493165
 31
0.000000
  0
LINE
  8
daiko
 10
42.714717
 20
15.120810
 30
0.000000
 11
42.800519
 21
15.120810
 31
0.000000
  0
LINE
  8
daiko
 10
42.714717
 20
15.120810
 30
0.000000
 11
42.157003
 21
14.971370
 31
0.000000
  0
LINE
  8
daiko
 10
45.160079
 20
14.465577
 30
0.000000
 11
42.714717
 21
15.120810
 31
0.000000
  0
LINE
  8
daiko
 10
45.374584
 20
14.523053
 30
0.000000
 11
47.648342
 21
13.913802
 31
0.000000
  0
LINE
  8
daiko
 10
38.553311
 20
15.936977
 30
0.000000
 11
39.325531
 21
16.143892
 31
0.000000
  0
LINE
  8
daiko
 10
46.876122
 20
13.706886
 30
0.000000
 11
38.553311
 21
15.936977
 31
0.000000
  0
LINE
  8
daiko
 10
46.704518
 20
13.660905
 30
0.000000
 11
44.430760
 21
14.270156
 31
0.000000
  0
LINE
  8
daiko
 10
46.961924
 20
10.755720
 30
0.000000
 11
46.961924
 21
13.325446
 31
0.000000
  0
LINE
  8
daiko
 10
47.133529
 20
13.371427
 30
0.000000
 11
47.133529
 21
10.801701
 31
0.000000
  0
LINE
  8
daiko
 10
7.018625
 20
4.245605
 30
0.000000
 11
44.430760
 21
14.270156
 31
0.000000
  0
LINE
  8
daiko
 10
44.465081
 20
14.306941
 30
0.000000
 11
6.881342
 21
4.236409
 31
0.000000
  0
LINE
  8
daiko
 10
38.836458
 20
15.815126
 30
0.000000
 11
44.465081
 21
14.306941
 31
0.000000
  0
LINE
  8
daiko
 10
38.570472
 20
15.886397
 30
0.000000
 11
38.570472
 21
15.746117
 31
0.000000
  0
LINE
  8
daiko
 10
38.467509
 20
15.913986
 30
0.000000
 11
38.570472
 21
15.886397
 31
0.000000
  0
LINE
  8
daiko
 10
1.252719
 20
5.744594
 30
0.000000
 11
38.836458
 21
15.815126
 31
0.000000
  0
LINE
  8
daiko
 10
38.570472
 20
15.886397
 30
0.000000
 11
0.986733
 21
5.815865
 31
0.000000
  0
LINE
  8
daiko
 10
0.883770
 20
5.843453
 30
0.000000
 11
38.467509
 21
15.913986
 31
0.000000
  0
LINE
  8
daiko
 10
0.883770
 20
5.843453
 30
0.000000
 11
0.883770
 21
5.797472
 31
0.000000
  0
LINE
  8
daiko
 10
1.252719
 20
5.744594
 30
0.000000
 11
6.881342
 21
4.236409
 31
0.000000
  0
LINE
  8
daiko
 10
1.252719
 20
5.744594
 30
0.000000
 11
1.252719
 21
5.698613
 31
0.000000
  0
LINE
  8
daiko
 10
0.986733
 20
5.815865
 30
0.000000
 11
0.986733
 21
5.770654
 31
0.000000
  0
LINE
  8
daiko
 10
0.883770
 20
5.843453
 30
0.000000
 11
0.986733
 21
5.815865
 31
0.000000
  0
LINE
  8
daiko
 10
9.292383
 20
3.636354
 30
0.000000
 11
7.018625
 21
4.245605
 31
0.000000
  0
LINE
  8
daiko
 10
9.549789
 20
0.731168
 30
0.000000
 11
9.549789
 21
3.300895
 31
0.000000
  0
LINE
  8
daiko
 10
9.140293
 20
0.262488
 30
0.000000
 11
46.552428
 21
10.287040
 31
0.000000
  0
LINE
  8
daiko
 10
4.448194
 20
0.964228
 30
0.000000
 11
4.288166
 21
0.918278
 31
0.000000
  0
LINE
  8
daiko
 10
0.797968
 20
5.820463
 30
0.000000
 11
0.025748
 21
5.613547
 31
0.000000
  0
LINE
  8
daiko
 10
9.120779
 20
3.590372
 30
0.000000
 11
0.797968
 21
5.820463
 31
0.000000
  0
LINE
  8
daiko
 10
9.378185
 20
3.254914
 30
0.000000
 11
9.378185
 21
0.685187
 31
0.000000
  0
LINE
  8
daiko
 10
6.074801
 20
3.992708
 30
0.000000
 11
8.348559
 21
3.383457
 31
0.000000
  0
LINE
  8
daiko
 10
3.843945
 20
4.705418
 30
0.000000
 11
3.843945
 21
4.682427
 31
0.000000
  0
LINE
  8
daiko
 10
3.843945
 20
4.705418
 30
0.000000
 11
4.401659
 21
4.854857
 31
0.000000
  0
LINE
  8
daiko
 10
6.289307
 20
4.050185
 30
0.000000
 11
3.843945
 21
4.705418
 31
0.000000
  0
LINE
  8
daiko
 10
6.186344
 20
4.054783
 30
0.000000
 11
3.843945
 21
4.682427
 31
0.000000
  0
LINE
  8
daiko
 10
45.314523
 20
14.539147
 30
0.000000
 11
39.325531
 21
16.143892
 31
0.000000
  0
LINE
  8
daiko
 10
47.905748
 20
13.578343
 30
0.000000
 11
47.905748
 21
11.008617
 31
0.000000
  0
LINE
  8
daiko
 10
8.605966
 20
3.047998
 30
0.000000
 11
8.605966
 21
0.478271
 31
0.000000
  0
LINE
  8
daiko
 10
2.256605
 20
1.684706
 30
0.000000
 11
0.025748
 21
2.282462
 31
0.000000
  0
LINE
  8
daiko
 10
2.428209
 20
4.570080
 30
0.000000
 11
2.428209
 21
1.816382
 31
0.000000
  0
LINE
  8
daiko
 10
0.025748
 20
5.391475
 30
0.000000
 11
2.256605
 21
4.793719
 31
0.000000
  0
LINE
  8
daiko
 10
6.029601
 20
3.574318
 30
0.000000
 11
4.288166
 21
0.918278
 31
0.000000
  0
LINE
  8
daiko
 10
6.029601
 20
4.004820
 30
0.000000
 11
0.025748
 21
5.613547
 31
0.000000
  0
LINE
  8
daiko
 10
0.025748
 20
2.060389
 30
0.000000
 11
4.288166
 21
0.918278
 31
0.000000
  0
LINE
  8
daiko
 10
0.025748
 20
2.060389
 30
0.000000
 11
0.025748
 21
5.613547
 31
0.000000
  0
LINE
  8
daiko
 10
7.999253
 20
0.012724
 30
0.000000
 11
4.390513
 21
0.979683
 31
0.000000
  0
LINE
  8
daiko
 10
6.074801
 20
3.548564
 30
0.000000
 11
4.390513
 21
0.979683
 31
0.000000
  0
ENDBLK
  0
ENDSEC
  0
SECTION
  2
ENTITIES
  0
INSERT
  8
daiko
  2
TOP
 10
-0.025748
 20
-0.005779
 30
0.000000
  0
TEXT
  8
daiko
 10
0.000000
 20
-10.000000
 30
0.000000
 40
4.000000
  1
DSY-4565FW
  7
BIGFONT
  0
TEXT
  8
daiko
 10
0.000000
 20
-14.000000
 30
0.000000
 40
3.000000
  1
LED17W         2700Kü`2000K
  7
BIGFONT
  0
TEXT
  8
daiko
 10
0.000000
 20
-18.000000
 30
0.000000
 40
3.000000
  1
ëëÉFÉ½ Ra83    öÆ
  7
BIGFONT
  0
TEXT
  8
daiko
 10
0.000000
 20
-22.000000
 30
0.000000
 40
3.000000
  1
ïð100 ÆÀ613 ìé40mm
  7
BIGFONT
  0
ENDSEC
  0
EOF
