  0
SECTION
  2
HEADER
  9
$EXTMIN
 10
0.000000
 20
-23.000000
 30
0.000000
  9
$EXTMAX
 10
49.502598
 20
16.472218
 30
0.000000
  0
ENDSEC
  0
SECTION
  2
TABLES
  0
TABLE
  2
LTYPE
 70
     2
  0
LTYPE
  2
CONTINUOUS
 70
     0
  3
Solid line
 72
    65
 73
     0
 40
0.000000
  0
LTYPE
  2
PHANTOM2
 70
     0
  3
Phantom (.5x) ___ _ _ ___ _ _ ___ _ _ ___ _ _
 72
    65
 73
     6
 40
1.250000
 49
0.625000
 49
-0.125000
 49
0.125000
 49
-0.125000
 49
0.125000
 49
-0.125000
  0
ENDTAB
  0
TABLE
  2
STYLE
 70
     2
  0
STYLE
  2
BIGFONT
 70
     0
 40
1.000000
 41
1.000000
 50
0.000000
 71
     0
 42
0.000000
  3
txt
  4
bigfont
  0
STYLE
  2
STANDARD
 70
     0
 40
0.000000
 41
1.000000
 50
0.000000
 71
     0
 42
3.500000
  3
txt.shx
  4
bigfont.shx
  0
ENDTAB
  0
TABLE
  2
LAYER
 70
     1
  0
LAYER
  2
daiko
 70
     0
 62
     7
  6
CONTINUOUS
  0
ENDTAB
  0
ENDSEC
  0
SECTION
  2
ENTITIES
  0
LINE
  8
daiko
 10
49.383701
 20
15.141227
 30
0.000000
 11
2.028390
 21
1.470926
 31
0.000000
  0
LINE
  8
daiko
 10
2.046484
 20
0.037810
 30
0.000000
 11
49.398430
 21
13.707140
 31
0.000000
  0
LINE
  8
daiko
 10
48.309058
 20
15.808527
 30
0.000000
 11
1.360162
 21
2.255548
 31
0.000000
  0
LINE
  8
daiko
 10
47.612375
 20
16.324518
 30
0.000000
 11
0.714641
 21
2.786308
 31
0.000000
  0
LINE
  8
daiko
 10
47.760492
 20
16.463692
 30
0.000000
 11
47.483086
 21
16.383612
 31
0.000000
  0
LINE
  8
daiko
 10
0.482710
 20
2.815772
 30
0.000000
 11
0.205305
 21
2.735692
 31
0.000000
  0
LINE
  8
daiko
 10
2.030468
 20
1.469126
 30
0.000000
 11
2.039620
 21
1.461200
 31
0.000000
  0
LINE
  8
daiko
 10
2.046484
 20
1.443367
 30
0.000000
 11
2.046484
 21
0.048415
 31
0.000000
  0
LINE
  8
daiko
 10
2.046484
 20
1.443367
 30
0.000000
 11
49.403525
 21
15.114167
 31
0.000000
  0
LINE
  8
daiko
 10
2.039620
 20
1.461200
 30
0.000000
 11
49.396661
 21
15.132000
 31
0.000000
  0
LINE
  8
daiko
 10
2.046484
 20
0.048415
 30
0.000000
 11
49.403525
 21
13.719215
 31
0.000000
  0
LINE
  8
daiko
 10
49.403525
 20
15.114167
 30
0.000000
 11
49.403525
 21
13.719215
 31
0.000000
  0
LINE
  8
daiko
 10
49.387509
 20
15.139926
 30
0.000000
 11
49.396661
 21
15.132000
 31
0.000000
  0
LINE
  8
daiko
 10
49.190873
 20
15.104298
 30
0.000000
 11
47.863833
 21
16.253548
 31
0.000000
  0
LINE
  8
daiko
 10
47.863833
 20
16.253548
 30
0.000000
 11
48.141238
 21
16.333628
 31
0.000000
  0
LINE
  8
daiko
 10
48.141238
 20
16.333628
 30
0.000000
 11
49.502598
 21
15.154656
 31
0.000000
  0
LINE
  8
daiko
 10
49.403525
 20
15.126056
 30
0.000000
 11
49.502598
 21
15.154656
 31
0.000000
  0
LINE
  8
daiko
 10
49.369205
 20
15.155778
 30
0.000000
 11
49.403525
 21
15.126056
 31
0.000000
  0
LINE
  8
daiko
 10
49.369205
 20
15.155778
 30
0.000000
 11
49.190873
 21
15.104298
 31
0.000000
  0
LINE
  8
daiko
 10
49.190873
 20
15.085562
 30
0.000000
 11
49.190873
 21
15.104298
 31
0.000000
  0
LINE
  8
daiko
 10
47.863833
 20
16.194104
 30
0.000000
 11
49.155618
 21
15.075385
 31
0.000000
  0
LINE
  8
daiko
 10
49.369205
 20
15.137042
 30
0.000000
 11
49.369205
 21
15.155778
 31
0.000000
  0
LINE
  8
daiko
 10
49.403525
 20
15.126056
 30
0.000000
 11
49.403525
 21
13.699400
 31
0.000000
  0
LINE
  8
daiko
 10
49.403525
 20
13.699400
 30
0.000000
 11
49.395548
 21
13.706308
 31
0.000000
  0
LINE
  8
daiko
 10
49.502598
 20
15.154656
 30
0.000000
 11
49.502598
 21
13.728000
 31
0.000000
  0
LINE
  8
daiko
 10
49.403525
 20
13.699400
 30
0.000000
 11
49.502598
 21
13.728000
 31
0.000000
  0
LINE
  8
daiko
 10
1.947411
 20
0.000000
 30
0.000000
 11
0.002611
 21
1.684246
 31
0.000000
  0
LINE
  8
daiko
 10
0.002611
 20
1.684246
 30
0.000000
 11
0.002611
 21
2.422906
 31
0.000000
  0
LINE
  8
daiko
 10
0.586051
 20
2.605628
 30
0.000000
 11
1.947411
 21
1.426656
 31
0.000000
  0
LINE
  8
daiko
 10
1.947411
 20
1.426656
 30
0.000000
 11
1.947411
 21
0.000000
 31
0.000000
  0
LINE
  8
daiko
 10
2.046484
 20
1.455256
 30
0.000000
 11
1.947411
 21
1.426656
 31
0.000000
  0
LINE
  8
daiko
 10
0.863456
 20
2.685708
 30
0.000000
 11
0.586051
 21
2.605628
 31
0.000000
  0
LINE
  8
daiko
 10
2.190496
 20
1.536458
 30
0.000000
 11
0.863456
 21
2.685708
 31
0.000000
  0
LINE
  8
daiko
 10
2.012164
 20
1.484978
 30
0.000000
 11
2.190496
 21
1.536458
 31
0.000000
  0
LINE
  8
daiko
 10
2.046484
 20
1.455256
 30
0.000000
 11
2.012164
 21
1.484978
 31
0.000000
  0
LINE
  8
daiko
 10
2.046484
 20
0.028600
 30
0.000000
 11
1.947411
 21
0.000000
 31
0.000000
  0
LINE
  8
daiko
 10
2.046484
 20
1.455256
 30
0.000000
 11
2.046484
 21
0.028600
 31
0.000000
  0
LINE
  8
daiko
 10
2.190496
 20
1.517722
 30
0.000000
 11
2.190496
 21
1.536458
 31
0.000000
  0
LINE
  8
daiko
 10
1.405712
 20
2.216101
 30
0.000000
 11
48.354608
 21
15.769080
 31
0.000000
  0
LINE
  8
daiko
 10
1.388552
 20
2.230962
 30
0.000000
 11
48.337448
 21
15.783941
 31
0.000000
  0
LINE
  8
daiko
 10
1.371392
 20
2.245823
 30
0.000000
 11
48.320288
 21
15.798802
 31
0.000000
  0
LINE
  8
daiko
 10
1.339399
 20
2.273529
 30
0.000000
 11
48.288296
 21
15.826508
 31
0.000000
  0
LINE
  8
daiko
 10
0.932096
 20
2.626264
 30
0.000000
 11
47.880993
 21
16.179243
 31
0.000000
  0
ARC
  8
daiko
 10
47.836398
 20
16.130079
 30
0.000000
 40
0.342139
 50
55.980254
 51
102.818153
  0
ARC
  8
daiko
 10
46.154305
 20
13.638128
 30
0.000000
 40
3.348675
 50
53.604979
 51
55.980254
  0
ARC
  8
daiko
 10
47.570198
 20
16.102815
 30
0.000000
 40
0.293998
 50
107.235501
 51
152.888464
  0
ARC
  8
daiko
 10
47.559376
 20
16.102347
 30
0.000000
 40
0.291428
 50
73.985482
 51
105.175587
  0
ARC
  8
daiko
 10
47.491348
 20
15.865334
 30
0.000000
 40
0.538010
 50
46.184580
 51
73.985482
  0
ARC
  8
daiko
 10
47.579164
 20
16.050789
 30
0.000000
 40
0.275736
 50
83.082198
 51
129.122030
  0
ARC
  8
daiko
 10
47.573611
 20
16.005020
 30
0.000000
 40
0.321840
 50
55.461195
 51
83.082198
  0
ARC
  8
daiko
 10
44.552305
 20
11.615365
 30
0.000000
 40
5.650758
 50
54.124038
 51
55.461195
  0
LINE
  8
daiko
 10
47.563699
 20
16.310466
 30
0.000000
 11
47.585122
 21
16.326995
 31
0.000000
  0
ARC
  8
daiko
 10
0.285815
 20
2.461450
 30
0.000000
 40
0.285815
 50
106.360928
 51
187.750382
  0
ARC
  8
daiko
 10
0.287369
 20
2.456159
 30
0.000000
 40
0.291330
 50
59.521894
 51
106.360928
  0
ARC
  8
daiko
 10
-0.326613
 20
1.412913
 30
0.000000
 40
1.501840
 50
52.576818
 51
59.521894
  0
ARC
  8
daiko
 10
0.556233
 20
2.466943
 30
0.000000
 40
0.356493
 50
63.618116
 51
101.902052
  0
ARC
  8
daiko
 10
0.415897
 20
2.184015
 30
0.000000
 40
0.672313
 50
48.263965
 51
63.618116
  0
TEXT
  8
daiko
 10
0.000000
 20
-10.000000
 30
0.000000
 40
4.000000
  1
DSY-4555FW
  7
BIGFONT
  0
TEXT
  8
daiko
 10
0.000000
 20
-14.000000
 30
0.000000
 40
3.000000
  1
LED33W         2700Kü`2000K
  7
BIGFONT
  0
TEXT
  8
daiko
 10
0.000000
 20
-18.000000
 30
0.000000
 40
3.000000
  1
ëëÉFÉ½ Ra83    öÆ
  7
BIGFONT
  0
TEXT
  8
daiko
 10
0.000000
 20
-22.000000
 30
0.000000
 40
3.000000
  1
ïð85 ÆÀ1200 ìé35mm
  7
BIGFONT
  0
ENDSEC
  0
EOF
