  0
SECTION
  2
HEADER
  9
$EXTMIN
 10
0.000000
 20
-23.000000
 30
0.000000
  9
$EXTMAX
 10
49.187278
 20
17.052593
 30
0.000000
  0
ENDSEC
  0
SECTION
  2
TABLES
  0
TABLE
  2
LTYPE
 70
     2
  0
LTYPE
  2
CONTINUOUS
 70
     0
  3
Solid line
 72
    65
 73
     0
 40
0.000000
  0
LTYPE
  2
PHANTOM2
 70
     0
  3
Phantom (.5x) ___ _ _ ___ _ _ ___ _ _ ___ _ _
 72
    65
 73
     6
 40
1.250000
 49
0.625000
 49
-0.125000
 49
0.125000
 49
-0.125000
 49
0.125000
 49
-0.125000
  0
ENDTAB
  0
TABLE
  2
STYLE
 70
     2
  0
STYLE
  2
BIGFONT
 70
     0
 40
1.000000
 41
1.000000
 50
0.000000
 71
     0
 42
0.000000
  3
txt
  4
bigfont
  0
STYLE
  2
STANDARD
 70
     0
 40
0.000000
 41
1.000000
 50
0.000000
 71
     0
 42
3.500000
  3
txt.shx
  4
bigfont.shx
  0
ENDTAB
  0
TABLE
  2
LAYER
 70
     1
  0
LAYER
  2
daiko
 70
     0
 62
     7
  6
CONTINUOUS
  0
ENDTAB
  0
ENDSEC
  0
SECTION
  2
ENTITIES
  0
LINE
  8
daiko
 10
49.031798
 20
15.312066
 30
0.000000
 11
2.652510
 21
1.923518
 31
0.000000
  0
LINE
  8
daiko
 10
2.676172
 20
0.049444
 30
0.000000
 11
49.051059
 21
13.436721
 31
0.000000
  0
LINE
  8
daiko
 10
46.715449
 20
16.859446
 30
0.000000
 11
0.934531
 21
3.643634
 31
0.000000
  0
LINE
  8
daiko
 10
46.909140
 20
17.041443
 30
0.000000
 11
46.546379
 21
16.936723
 31
0.000000
  0
LINE
  8
daiko
 10
0.631236
 20
3.682163
 30
0.000000
 11
0.268475
 21
3.577443
 31
0.000000
  0
LINE
  8
daiko
 10
2.655228
 20
1.921165
 30
0.000000
 11
2.667196
 21
1.910800
 31
0.000000
  0
LINE
  8
daiko
 10
2.676172
 20
1.887480
 30
0.000000
 11
2.676172
 21
0.063312
 31
0.000000
  0
LINE
  8
daiko
 10
2.676172
 20
1.887480
 30
0.000000
 11
49.057721
 21
15.276680
 31
0.000000
  0
LINE
  8
daiko
 10
2.667196
 20
1.910800
 30
0.000000
 11
49.048745
 21
15.300000
 31
0.000000
  0
LINE
  8
daiko
 10
2.676172
 20
0.063312
 30
0.000000
 11
49.057721
 21
13.452512
 31
0.000000
  0
LINE
  8
daiko
 10
49.057721
 20
15.276680
 30
0.000000
 11
49.057721
 21
13.452512
 31
0.000000
  0
LINE
  8
daiko
 10
49.036777
 20
15.310365
 30
0.000000
 11
49.048745
 21
15.300000
 31
0.000000
  0
LINE
  8
daiko
 10
48.779638
 20
15.263774
 30
0.000000
 11
47.044278
 21
16.766640
 31
0.000000
  0
LINE
  8
daiko
 10
47.044278
 20
16.766640
 30
0.000000
 11
47.407038
 21
16.871360
 31
0.000000
  0
LINE
  8
daiko
 10
47.407038
 20
16.871360
 30
0.000000
 11
49.187278
 21
15.329627
 31
0.000000
  0
LINE
  8
daiko
 10
49.057721
 20
15.292227
 30
0.000000
 11
49.187278
 21
15.329627
 31
0.000000
  0
LINE
  8
daiko
 10
49.012841
 20
15.331094
 30
0.000000
 11
49.057721
 21
15.292227
 31
0.000000
  0
LINE
  8
daiko
 10
49.012841
 20
15.331094
 30
0.000000
 11
48.779638
 21
15.263774
 31
0.000000
  0
LINE
  8
daiko
 10
48.779638
 20
15.239273
 30
0.000000
 11
48.779638
 21
15.263774
 31
0.000000
  0
LINE
  8
daiko
 10
47.044278
 20
16.688905
 30
0.000000
 11
48.733536
 21
15.225965
 31
0.000000
  0
LINE
  8
daiko
 10
49.012841
 20
15.306593
 30
0.000000
 11
49.012841
 21
15.331094
 31
0.000000
  0
LINE
  8
daiko
 10
49.057721
 20
15.292227
 30
0.000000
 11
49.057721
 21
13.426600
 31
0.000000
  0
LINE
  8
daiko
 10
49.057721
 20
13.426600
 30
0.000000
 11
49.047291
 21
13.435633
 31
0.000000
  0
LINE
  8
daiko
 10
49.187278
 20
15.329627
 30
0.000000
 11
49.187278
 21
13.464000
 31
0.000000
  0
LINE
  8
daiko
 10
49.057721
 20
13.426600
 30
0.000000
 11
49.187278
 21
13.464000
 31
0.000000
  0
LINE
  8
daiko
 10
2.546614
 20
0.000000
 30
0.000000
 11
0.003414
 21
2.202476
 31
0.000000
  0
LINE
  8
daiko
 10
0.003414
 20
2.202476
 30
0.000000
 11
0.003414
 21
3.168416
 31
0.000000
  0
LINE
  8
daiko
 10
0.766374
 20
3.407360
 30
0.000000
 11
2.546614
 21
1.865627
 31
0.000000
  0
LINE
  8
daiko
 10
2.546614
 20
1.865627
 30
0.000000
 11
2.546614
 21
0.000000
 31
0.000000
  0
LINE
  8
daiko
 10
2.676172
 20
1.903027
 30
0.000000
 11
2.546614
 21
1.865627
 31
0.000000
  0
LINE
  8
daiko
 10
1.129135
 20
3.512080
 30
0.000000
 11
0.766374
 21
3.407360
 31
0.000000
  0
LINE
  8
daiko
 10
2.864495
 20
2.009214
 30
0.000000
 11
1.129135
 21
3.512080
 31
0.000000
  0
LINE
  8
daiko
 10
2.631292
 20
1.941894
 30
0.000000
 11
2.864495
 21
2.009214
 31
0.000000
  0
LINE
  8
daiko
 10
2.676172
 20
1.903027
 30
0.000000
 11
2.631292
 21
1.941894
 31
0.000000
  0
LINE
  8
daiko
 10
2.676172
 20
0.037400
 30
0.000000
 11
2.546614
 21
0.000000
 31
0.000000
  0
LINE
  8
daiko
 10
2.676172
 20
1.903027
 30
0.000000
 11
2.676172
 21
0.037400
 31
0.000000
  0
LINE
  8
daiko
 10
2.864495
 20
1.984713
 30
0.000000
 11
2.864495
 21
2.009214
 31
0.000000
  0
LINE
  8
daiko
 10
1.838239
 20
2.897978
 30
0.000000
 11
47.686062
 21
16.133104
 31
0.000000
  0
LINE
  8
daiko
 10
1.815799
 20
2.917411
 30
0.000000
 11
47.663622
 21
16.152538
 31
0.000000
  0
LINE
  8
daiko
 10
1.793359
 20
2.936845
 30
0.000000
 11
47.641181
 21
16.171971
 31
0.000000
  0
LINE
  8
daiko
 10
1.781391
 20
2.947210
 30
0.000000
 11
47.629213
 21
16.182336
 31
0.000000
  0
LINE
  8
daiko
 10
1.751522
 20
2.973076
 30
0.000000
 11
47.599345
 21
16.208203
 31
0.000000
  0
LINE
  8
daiko
 10
1.218895
 20
3.434345
 30
0.000000
 11
47.066718
 21
16.669472
 31
0.000000
  0
ARC
  8
daiko
 10
47.008401
 20
16.605181
 30
0.000000
 40
0.447412
 50
55.980254
 51
102.818153
  0
ARC
  8
daiko
 10
44.808742
 20
13.346475
 30
0.000000
 40
4.379036
 50
53.604979
 51
55.980254
  0
ARC
  8
daiko
 10
46.660294
 20
16.569528
 30
0.000000
 40
0.384460
 50
107.235501
 51
152.888464
  0
ARC
  8
daiko
 10
46.646142
 20
16.568915
 30
0.000000
 40
0.381097
 50
73.985482
 51
105.175587
  0
ARC
  8
daiko
 10
46.557183
 20
16.258975
 30
0.000000
 40
0.703551
 50
46.184580
 51
73.985482
  0
ARC
  8
daiko
 10
46.672019
 20
16.501494
 30
0.000000
 40
0.360577
 50
83.082198
 51
129.122030
  0
ARC
  8
daiko
 10
46.664757
 20
16.441642
 30
0.000000
 40
0.420868
 50
55.461195
 51
83.082198
  0
ARC
  8
daiko
 10
42.713818
 20
10.701323
 30
0.000000
 40
7.389453
 50
54.124038
 51
55.461195
  0
LINE
  8
daiko
 10
46.651796
 20
16.841071
 30
0.000000
 11
46.679809
 21
16.862686
 31
0.000000
  0
ARC
  8
daiko
 10
0.373758
 20
3.218820
 30
0.000000
 40
0.373758
 50
106.360928
 51
187.750382
  0
ARC
  8
daiko
 10
0.375790
 20
3.211900
 30
0.000000
 40
0.380970
 50
59.521894
 51
106.360928
  0
ARC
  8
daiko
 10
-0.427110
 20
1.847656
 30
0.000000
 40
1.963945
 50
52.576818
 51
59.521894
  0
ARC
  8
daiko
 10
0.727381
 20
3.226002
 30
0.000000
 40
0.466183
 50
63.618116
 51
101.902052
  0
ARC
  8
daiko
 10
0.543866
 20
2.856019
 30
0.000000
 40
0.879179
 50
48.263965
 51
63.618116
  0
TEXT
  8
daiko
 10
0.000000
 20
-10.000000
 30
0.000000
 40
4.000000
  1
DSY-4554FW
  7
BIGFONT
  0
TEXT
  8
daiko
 10
0.000000
 20
-14.000000
 30
0.000000
 40
3.000000
  1
LED25W         2700Kü`2000K
  7
BIGFONT
  0
TEXT
  8
daiko
 10
0.000000
 20
-18.000000
 30
0.000000
 40
3.000000
  1
ëëÉFÉ½ Ra83    öÆ
  7
BIGFONT
  0
TEXT
  8
daiko
 10
0.000000
 20
-22.000000
 30
0.000000
 40
3.000000
  1
ïð85 ÆÀ900 ìé35mm
  7
BIGFONT
  0
ENDSEC
  0
EOF
