  0
SECTION
  2
HEADER
  9
$EXTMIN
 10
0.000000
 20
-23.000000
 30
0.000000
  9
$EXTMAX
 10
49.471162
 20
18.477342
 30
0.000000
  0
ENDSEC
  0
SECTION
  2
TABLES
  0
TABLE
  2
LTYPE
 70
     2
  0
LTYPE
  2
CONTINUOUS
 70
     0
  3
Solid line
 72
    65
 73
     0
 40
0.000000
  0
LTYPE
  2
PHANTOM2
 70
     0
  3
Phantom (.5x) ___ _ _ ___ _ _ ___ _ _ ___ _ _
 72
    65
 73
     6
 40
1.250000
 49
0.625000
 49
-0.125000
 49
0.125000
 49
-0.125000
 49
0.125000
 49
-0.125000
  0
ENDTAB
  0
TABLE
  2
STYLE
 70
     2
  0
STYLE
  2
BIGFONT
 70
     0
 40
1.000000
 41
1.000000
 50
0.000000
 71
     0
 42
0.000000
  3
txt
  4
bigfont
  0
STYLE
  2
STANDARD
 70
     0
 40
0.000000
 41
1.000000
 50
0.000000
 71
     0
 42
3.500000
  3
txt.shx
  4
bigfont.shx
  0
ENDTAB
  0
TABLE
  2
LAYER
 70
     1
  0
LAYER
  2
daiko
 70
     0
 62
     7
  6
CONTINUOUS
  0
ENDTAB
  0
ENDSEC
  0
SECTION
  2
ENTITIES
  0
LINE
  8
daiko
 10
49.242515
 20
15.917743
 30
0.000000
 11
3.900750
 21
2.828703
 31
0.000000
  0
LINE
  8
daiko
 10
3.935547
 20
0.072712
 30
0.000000
 11
49.270840
 21
13.159884
 31
0.000000
  0
LINE
  8
daiko
 10
47.175894
 20
17.201014
 30
0.000000
 11
2.615696
 21
4.337593
 31
0.000000
  0
LINE
  8
daiko
 10
45.836118
 20
18.193303
 30
0.000000
 11
1.374310
 21
5.358285
 31
0.000000
  0
LINE
  8
daiko
 10
46.120958
 20
18.460946
 30
0.000000
 11
45.587486
 21
18.306946
 31
0.000000
  0
LINE
  8
daiko
 10
0.928288
 20
5.414946
 30
0.000000
 11
0.394817
 21
5.260946
 31
0.000000
  0
LINE
  8
daiko
 10
3.904747
 20
2.825242
 30
0.000000
 11
3.922347
 21
2.810000
 31
0.000000
  0
LINE
  8
daiko
 10
3.935547
 20
2.775706
 30
0.000000
 11
3.935547
 21
0.093105
 31
0.000000
  0
LINE
  8
daiko
 10
3.935547
 20
2.775706
 30
0.000000
 11
49.280637
 21
15.865706
 31
0.000000
  0
LINE
  8
daiko
 10
3.922347
 20
2.810000
 30
0.000000
 11
49.267437
 21
15.900000
 31
0.000000
  0
LINE
  8
daiko
 10
3.935547
 20
0.093105
 30
0.000000
 11
49.280637
 21
13.183105
 31
0.000000
  0
LINE
  8
daiko
 10
49.280637
 20
15.865706
 30
0.000000
 11
49.280637
 21
13.183105
 31
0.000000
  0
LINE
  8
daiko
 10
49.249837
 20
15.915242
 30
0.000000
 11
49.267437
 21
15.900000
 31
0.000000
  0
LINE
  8
daiko
 10
48.871691
 20
15.846726
 30
0.000000
 11
46.319691
 21
18.056823
 31
0.000000
  0
LINE
  8
daiko
 10
46.319691
 20
18.056823
 30
0.000000
 11
46.853162
 21
18.210823
 31
0.000000
  0
LINE
  8
daiko
 10
46.853162
 20
18.210823
 30
0.000000
 11
49.471162
 21
15.943568
 31
0.000000
  0
LINE
  8
daiko
 10
49.280637
 20
15.888568
 30
0.000000
 11
49.471162
 21
15.943568
 31
0.000000
  0
LINE
  8
daiko
 10
49.214637
 20
15.945726
 30
0.000000
 11
49.280637
 21
15.888568
 31
0.000000
  0
LINE
  8
daiko
 10
49.214637
 20
15.945726
 30
0.000000
 11
48.871691
 21
15.846726
 31
0.000000
  0
LINE
  8
daiko
 10
48.871691
 20
15.810696
 30
0.000000
 11
48.871691
 21
15.846726
 31
0.000000
  0
LINE
  8
daiko
 10
46.319691
 20
17.942508
 30
0.000000
 11
48.803894
 21
15.791125
 31
0.000000
  0
LINE
  8
daiko
 10
49.214637
 20
15.909696
 30
0.000000
 11
49.214637
 21
15.945726
 31
0.000000
  0
LINE
  8
daiko
 10
49.280637
 20
15.888568
 30
0.000000
 11
49.280637
 21
13.145000
 31
0.000000
  0
LINE
  8
daiko
 10
49.280637
 20
13.145000
 30
0.000000
 11
49.265298
 21
13.158284
 31
0.000000
  0
LINE
  8
daiko
 10
49.471162
 20
15.943568
 30
0.000000
 11
49.471162
 21
13.200000
 31
0.000000
  0
LINE
  8
daiko
 10
49.280637
 20
13.145000
 30
0.000000
 11
49.471162
 21
13.200000
 31
0.000000
  0
LINE
  8
daiko
 10
3.745021
 20
0.000000
 30
0.000000
 11
0.005021
 21
3.238935
 31
0.000000
  0
LINE
  8
daiko
 10
0.005021
 20
3.238935
 30
0.000000
 11
0.005021
 21
4.659435
 31
0.000000
  0
LINE
  8
daiko
 10
1.127021
 20
5.010823
 30
0.000000
 11
3.745021
 21
2.743568
 31
0.000000
  0
LINE
  8
daiko
 10
3.745021
 20
2.743568
 30
0.000000
 11
3.745021
 21
0.000000
 31
0.000000
  0
LINE
  8
daiko
 10
3.935547
 20
2.798568
 30
0.000000
 11
3.745021
 21
2.743568
 31
0.000000
  0
LINE
  8
daiko
 10
1.660493
 20
5.164823
 30
0.000000
 11
1.127021
 21
5.010823
 31
0.000000
  0
LINE
  8
daiko
 10
4.212493
 20
2.954726
 30
0.000000
 11
1.660493
 21
5.164823
 31
0.000000
  0
LINE
  8
daiko
 10
3.869547
 20
2.855726
 30
0.000000
 11
4.212493
 21
2.954726
 31
0.000000
  0
LINE
  8
daiko
 10
3.935547
 20
2.798568
 30
0.000000
 11
3.869547
 21
2.855726
 31
0.000000
  0
LINE
  8
daiko
 10
3.935547
 20
0.055000
 30
0.000000
 11
3.745021
 21
0.000000
 31
0.000000
  0
LINE
  8
daiko
 10
3.935547
 20
2.798568
 30
0.000000
 11
3.935547
 21
0.055000
 31
0.000000
  0
LINE
  8
daiko
 10
4.212493
 20
2.918696
 30
0.000000
 11
4.212493
 21
2.954726
 31
0.000000
  0
LINE
  8
daiko
 10
2.703292
 20
4.261732
 30
0.000000
 11
47.263490
 21
17.125153
 31
0.000000
  0
LINE
  8
daiko
 10
2.670292
 20
4.290311
 30
0.000000
 11
47.230490
 21
17.153732
 31
0.000000
  0
LINE
  8
daiko
 10
2.637292
 20
4.318890
 30
0.000000
 11
47.197490
 21
17.182311
 31
0.000000
  0
LINE
  8
daiko
 10
2.575768
 20
4.372171
 30
0.000000
 11
47.135966
 21
17.235592
 31
0.000000
  0
LINE
  8
daiko
 10
1.792493
 20
5.050508
 30
0.000000
 11
46.352691
 21
17.913929
 31
0.000000
  0
ARC
  8
daiko
 10
46.266931
 20
17.819383
 30
0.000000
 40
0.657959
 50
55.980254
 51
102.818153
  0
ARC
  8
daiko
 10
43.032138
 20
13.027168
 30
0.000000
 40
6.439759
 50
53.604979
 51
55.980254
  0
ARC
  8
daiko
 10
45.755009
 20
17.766953
 30
0.000000
 40
0.565382
 50
107.235501
 51
152.888464
  0
ARC
  8
daiko
 10
45.734197
 20
17.766052
 30
0.000000
 40
0.560438
 50
73.985482
 51
105.175587
  0
ARC
  8
daiko
 10
45.603375
 20
17.310258
 30
0.000000
 40
1.034634
 50
46.184580
 51
73.985482
  0
ARC
  8
daiko
 10
45.772251
 20
17.666902
 30
0.000000
 40
0.530261
 50
83.082198
 51
129.122030
  0
ARC
  8
daiko
 10
45.761572
 20
17.578885
 30
0.000000
 40
0.618924
 50
55.461195
 51
83.082198
  0
ARC
  8
daiko
 10
39.951368
 20
9.137240
 30
0.000000
 40
10.866843
 50
54.124038
 51
55.461195
  0
LINE
  8
daiko
 10
45.742511
 20
18.166281
 30
0.000000
 11
45.783708
 21
18.198068
 31
0.000000
  0
ARC
  8
daiko
 10
0.549645
 20
4.733558
 30
0.000000
 40
0.549645
 50
106.360928
 51
187.750382
  0
ARC
  8
daiko
 10
0.552632
 20
4.723383
 30
0.000000
 40
0.560250
 50
59.521894
 51
106.360928
  0
ARC
  8
daiko
 10
-0.628102
 20
2.717141
 30
0.000000
 40
2.888155
 50
52.576818
 51
59.521894
  0
ARC
  8
daiko
 10
1.069678
 20
4.744121
 30
0.000000
 40
0.685563
 50
63.618116
 51
101.902052
  0
ARC
  8
daiko
 10
0.799803
 20
4.200028
 30
0.000000
 40
1.292910
 50
48.263965
 51
63.618116
  0
TEXT
  8
daiko
 10
0.000000
 20
-10.000000
 30
0.000000
 40
4.000000
  1
DSY-4553FW
  7
BIGFONT
  0
TEXT
  8
daiko
 10
0.000000
 20
-14.000000
 30
0.000000
 40
3.000000
  1
LED17W         2700Kü`2000K
  7
BIGFONT
  0
TEXT
  8
daiko
 10
0.000000
 20
-18.000000
 30
0.000000
 40
3.000000
  1
ëëÉFÉ½ Ra83    öÆ
  7
BIGFONT
  0
TEXT
  8
daiko
 10
0.000000
 20
-22.000000
 30
0.000000
 40
3.000000
  1
ïð85 ÆÀ600 ìé35mm
  7
BIGFONT
  0
ENDSEC
  0
EOF
