  0
SECTION
  2
HEADER
  9
$EXTMIN
 10
0.000000
 20
-23.000000
 30
0.000000
  9
$EXTMAX
 10
49.585357
 20
16.076484
 30
0.000000
  0
ENDSEC
  0
SECTION
  2
TABLES
  0
TABLE
  2
LTYPE
 70
     2
  0
LTYPE
  2
CONTINUOUS
 70
     0
  3
Solid line
 72
    65
 73
     0
 40
0.000000
  0
LTYPE
  2
PHANTOM2
 70
     0
  3
Phantom (.5x) ___ _ _ ___ _ _ ___ _ _ ___ _ _
 72
    65
 73
     6
 40
1.250000
 49
0.625000
 49
-0.125000
 49
0.125000
 49
-0.125000
 49
0.125000
 49
-0.125000
  0
ENDTAB
  0
TABLE
  2
STYLE
 70
     2
  0
STYLE
  2
BIGFONT
 70
     0
 40
1.000000
 41
1.000000
 50
0.000000
 71
     0
 42
0.000000
  3
txt
  4
bigfont
  0
STYLE
  2
STANDARD
 70
     0
 40
0.000000
 41
1.000000
 50
0.000000
 71
     0
 42
3.500000
  3
txt.shx
  4
bigfont.shx
  0
ENDTAB
  0
TABLE
  2
LAYER
 70
     1
  0
LAYER
  2
daiko
 70
     0
 62
     7
  6
CONTINUOUS
  0
ENDTAB
  0
ENDSEC
  0
SECTION
  2
ENTITIES
  0
LINE
  8
daiko
 10
49.489325
 20
15.001452
 30
0.000000
 11
1.638315
 21
1.188055
 31
0.000000
  0
LINE
  8
daiko
 10
1.652930
 20
0.030539
 30
0.000000
 11
49.501222
 21
13.843151
 31
0.000000
  0
LINE
  8
daiko
 10
48.657016
 20
15.509533
 30
0.000000
 11
1.134264
 21
1.790897
 31
0.000000
  0
LINE
  8
daiko
 10
48.621344
 20
15.540426
 30
0.000000
 11
1.098592
 21
1.821789
 31
0.000000
  0
LINE
  8
daiko
 10
48.058639
 20
15.957187
 30
0.000000
 11
0.577210
 21
2.250480
 31
0.000000
  0
LINE
  8
daiko
 10
48.178271
 20
16.069597
 30
0.000000
 11
47.954213
 21
16.004917
 31
0.000000
  0
LINE
  8
daiko
 10
0.389881
 20
2.274277
 30
0.000000
 11
0.165823
 21
2.209597
 31
0.000000
  0
LINE
  8
daiko
 10
1.639994
 20
1.186602
 30
0.000000
 11
1.647386
 21
1.180200
 31
0.000000
  0
LINE
  8
daiko
 10
1.652930
 20
1.165796
 30
0.000000
 11
1.652930
 21
0.039104
 31
0.000000
  0
LINE
  8
daiko
 10
1.652930
 20
1.165796
 30
0.000000
 11
49.505336
 21
14.979596
 31
0.000000
  0
LINE
  8
daiko
 10
1.647386
 20
1.180200
 30
0.000000
 11
49.499792
 21
14.994000
 31
0.000000
  0
LINE
  8
daiko
 10
1.652930
 20
0.039104
 30
0.000000
 11
49.505336
 21
13.852904
 31
0.000000
  0
LINE
  8
daiko
 10
49.505336
 20
14.979596
 30
0.000000
 11
49.505336
 21
13.852904
 31
0.000000
  0
LINE
  8
daiko
 10
1.639994
 20
1.186602
 30
0.000000
 11
49.492400
 21
15.000402
 31
0.000000
  0
LINE
  8
daiko
 10
49.492400
 20
15.000402
 30
0.000000
 11
49.499792
 21
14.994000
 31
0.000000
  0
LINE
  8
daiko
 10
49.333579
 20
14.971625
 30
0.000000
 11
48.261739
 21
15.899866
 31
0.000000
  0
LINE
  8
daiko
 10
48.261739
 20
15.899866
 30
0.000000
 11
48.485797
 21
15.964546
 31
0.000000
  0
LINE
  8
daiko
 10
48.485797
 20
15.964546
 30
0.000000
 11
49.585357
 21
15.012299
 31
0.000000
  0
LINE
  8
daiko
 10
49.505336
 20
14.989199
 30
0.000000
 11
49.585357
 21
15.012299
 31
0.000000
  0
LINE
  8
daiko
 10
49.477616
 20
15.013205
 30
0.000000
 11
49.505336
 21
14.989199
 31
0.000000
  0
LINE
  8
daiko
 10
49.477616
 20
15.013205
 30
0.000000
 11
49.333579
 21
14.971625
 31
0.000000
  0
LINE
  8
daiko
 10
49.333579
 20
14.956492
 30
0.000000
 11
49.333579
 21
14.971625
 31
0.000000
  0
LINE
  8
daiko
 10
48.261739
 20
15.851853
 30
0.000000
 11
49.305104
 21
14.948272
 31
0.000000
  0
LINE
  8
daiko
 10
49.477616
 20
14.998072
 30
0.000000
 11
49.477616
 21
15.013205
 31
0.000000
  0
LINE
  8
daiko
 10
49.505336
 20
14.989199
 30
0.000000
 11
49.505336
 21
13.836900
 31
0.000000
  0
LINE
  8
daiko
 10
49.505336
 20
13.836900
 30
0.000000
 11
49.498894
 21
13.842479
 31
0.000000
  0
LINE
  8
daiko
 10
49.585357
 20
15.012299
 30
0.000000
 11
49.585357
 21
13.860000
 31
0.000000
  0
LINE
  8
daiko
 10
49.505336
 20
13.836900
 30
0.000000
 11
49.585357
 21
13.860000
 31
0.000000
  0
LINE
  8
daiko
 10
1.572909
 20
0.000000
 30
0.000000
 11
0.002109
 21
1.360353
 31
0.000000
  0
LINE
  8
daiko
 10
0.002109
 20
1.360353
 30
0.000000
 11
0.002109
 21
1.956963
 31
0.000000
  0
LINE
  8
daiko
 10
0.473349
 20
2.104546
 30
0.000000
 11
1.572909
 21
1.152299
 31
0.000000
  0
LINE
  8
daiko
 10
1.572909
 20
1.152299
 30
0.000000
 11
1.572909
 21
0.000000
 31
0.000000
  0
LINE
  8
daiko
 10
1.652930
 20
1.175399
 30
0.000000
 11
1.572909
 21
1.152299
 31
0.000000
  0
LINE
  8
daiko
 10
0.697407
 20
2.169226
 30
0.000000
 11
0.473349
 21
2.104546
 31
0.000000
  0
LINE
  8
daiko
 10
1.769247
 20
1.240985
 30
0.000000
 11
0.697407
 21
2.169226
 31
0.000000
  0
LINE
  8
daiko
 10
1.625210
 20
1.199405
 30
0.000000
 11
1.769247
 21
1.240985
 31
0.000000
  0
LINE
  8
daiko
 10
1.652930
 20
1.175399
 30
0.000000
 11
1.625210
 21
1.199405
 31
0.000000
  0
LINE
  8
daiko
 10
1.652930
 20
0.023100
 30
0.000000
 11
1.572909
 21
0.000000
 31
0.000000
  0
LINE
  8
daiko
 10
1.652930
 20
1.175399
 30
0.000000
 11
1.652930
 21
0.023100
 31
0.000000
  0
LINE
  8
daiko
 10
1.769247
 20
1.225852
 30
0.000000
 11
1.769247
 21
1.240985
 31
0.000000
  0
LINE
  8
daiko
 10
1.135383
 20
1.789927
 30
0.000000
 11
48.658135
 21
15.508564
 31
0.000000
  0
LINE
  8
daiko
 10
1.121523
 20
1.801931
 30
0.000000
 11
48.644275
 21
15.520567
 31
0.000000
  0
LINE
  8
daiko
 10
1.107663
 20
1.813934
 30
0.000000
 11
48.630415
 21
15.532571
 31
0.000000
  0
LINE
  8
daiko
 10
1.100271
 20
1.820335
 30
0.000000
 11
48.623023
 21
15.538972
 31
0.000000
  0
LINE
  8
daiko
 10
1.081823
 20
1.836312
 30
0.000000
 11
48.604575
 21
15.554949
 31
0.000000
  0
LINE
  8
daiko
 10
0.752847
 20
2.121213
 30
0.000000
 11
48.275599
 21
15.839850
 31
0.000000
  0
ARC
  8
daiko
 10
48.239580
 20
15.800141
 30
0.000000
 40
0.276343
 50
55.980254
 51
102.818153
  0
ARC
  8
daiko
 10
46.880967
 20
13.787411
 30
0.000000
 40
2.704699
 50
53.604979
 51
55.980254
  0
ARC
  8
daiko
 10
48.024573
 20
15.778120
 30
0.000000
 40
0.237460
 50
107.235501
 51
152.888464
  0
ARC
  8
daiko
 10
48.015832
 20
15.777742
 30
0.000000
 40
0.235384
 50
73.985482
 51
105.175587
  0
ARC
  8
daiko
 10
47.960886
 20
15.586308
 30
0.000000
 40
0.434546
 50
46.184580
 51
73.985482
  0
ARC
  8
daiko
 10
48.031814
 20
15.736099
 30
0.000000
 40
0.222710
 50
83.082198
 51
129.122030
  0
ARC
  8
daiko
 10
48.027329
 20
15.699132
 30
0.000000
 40
0.259948
 50
55.461195
 51
83.082198
  0
ARC
  8
daiko
 10
45.587044
 20
12.153641
 30
0.000000
 40
4.564074
 50
54.124038
 51
55.461195
  0
LINE
  8
daiko
 10
48.019324
 20
15.945838
 30
0.000000
 11
48.036626
 21
15.959189
 31
0.000000
  0
ARC
  8
daiko
 10
0.230851
 20
1.988095
 30
0.000000
 40
0.230851
 50
106.360928
 51
187.750382
  0
ARC
  8
daiko
 10
0.232105
 20
1.983821
 30
0.000000
 40
0.235305
 50
59.521894
 51
106.360928
  0
ARC
  8
daiko
 10
-0.263803
 20
1.141199
 30
0.000000
 40
1.213025
 50
52.576818
 51
59.521894
  0
ARC
  8
daiko
 10
0.449265
 20
1.992531
 30
0.000000
 40
0.287937
 50
63.618116
 51
101.902052
  0
ARC
  8
daiko
 10
0.335917
 20
1.764012
 30
0.000000
 40
0.543022
 50
48.263965
 51
63.618116
  0
TEXT
  8
daiko
 10
0.000000
 20
-10.000000
 30
0.000000
 40
4.000000
  1
DSY-4552FW
  7
BIGFONT
  0
TEXT
  8
daiko
 10
0.000000
 20
-14.000000
 30
0.000000
 40
3.000000
  1
LED10W         2700Kü`2000K
  7
BIGFONT
  0
TEXT
  8
daiko
 10
0.000000
 20
-18.000000
 30
0.000000
 40
3.000000
  1
ëëÉFÉ½ Ra83    öÆ
  7
BIGFONT
  0
TEXT
  8
daiko
 10
0.000000
 20
-22.000000
 30
0.000000
 40
3.000000
  1
ïð85 ÆÀ300 ìé35mm
  7
BIGFONT
  0
ENDSEC
  0
EOF
