  0
SECTION
  2
HEADER
  9
$EXTMIN
 10
0.000000
 20
-23.000000
 30
0.000000
  9
$EXTMAX
 10
47.859990
 20
15.158018
 30
0.000000
  0
ENDSEC
  0
SECTION
  2
TABLES
  0
TABLE
  2
LTYPE
 70
    10
  0
LTYPE
  2
ByBlock
 70
     0
  3

 72
    65
 73
     0
 40
0.000000
  0
LTYPE
  2
ByLayer
 70
     0
  3

 72
    65
 73
     0
 40
0.000000
  0
LTYPE
  2
CENTER_DASH_DASH
 70
     0
  3
Center_Dash_Dash
 72
    65
 73
     6
 40
22.000000
 49
12.000000
 49
-3.000000
 49
0.500000
 49
-3.000000
 49
0.500000
 49
-3.000000
  0
LTYPE
  2
CONTINUOUS
 70
     0
  3
Solid line
 72
    65
 73
     0
 40
0.000000
  0
LTYPE
  2
DASHED
 70
     0
  3
Dashed
 72
    65
 73
     2
 40
15.000000
 49
12.000000
 49
-3.000000
  0
LTYPE
  2
DASH_CENTER
 70
     0
  3
Dash_Center
 72
    65
 73
     4
 40
36.000000
 49
24.000000
 49
-3.000000
 49
6.000000
 49
-3.000000
  0
LTYPE
  2
DOTTED
 70
     0
  3
Dotted
 72
    65
 73
     2
 40
3.500000
 49
0.500000
 49
-3.000000
  0
LTYPE
  2
DOT_CENTER
 70
     0
  3
Dot_Center
 72
    65
 73
     4
 40
2.000000
 49
1.250000
 49
-0.250000
 49
0.250000
 49
-0.250000
  0
LTYPE
  2
LONG_DASHED
 70
     0
  3
Long_Dashed
 72
    65
 73
     2
 40
2.000000
 49
1.500000
 49
-0.500000
  0
LTYPE
  2
PHANTOM
 70
     0
  3
Phantom
 72
    65
 73
     6
 40
2.500000
 49
1.250000
 49
-0.250000
 49
0.250000
 49
-0.250000
 49
0.250000
 49
-0.250000
  0
ENDTAB
  0
TABLE
  2
STYLE
 70
     3
  0
STYLE
  2
BIGFONT
 70
     0
 40
1.000000
 41
1.000000
 50
0.000000
 71
     0
 42
0.000000
  3
txt
  4
bigfont
  0
STYLE
  2
CONVERTER_1
 70
     0
 40
0.000000
 41
0.900000
 50
0.000000
 71
     0
 42
0.000000
  3
txt.shx
  4

  0
STYLE
  2
STANDARD
 70
     0
 40
0.000000
 41
1.000000
 50
0.000000
 71
     0
 42
0.000000
  3
txt
  4

  0
ENDTAB
  0
TABLE
  2
LAYER
 70
     1
  0
LAYER
  2
daiko
 70
     0
 62
     7
  6
CONTINUOUS
  0
ENDTAB
  0
ENDSEC
  0
SECTION
  2
BLOCKS
  0
BLOCK
  8
daiko
  2
TOP
 70
     0
 10
0.000000
 20
0.000000
 30
0.000000
  3
TOP
  1

  0
ARC
  8
daiko
 10
0.583392
 20
1.052667
 30
0.000000
 40
0.176554
 50
62.587244
 51
124.896782
  0
ARC
  8
daiko
 10
0.501475
 20
0.923244
 30
0.000000
 40
0.329420
 50
31.784154
 51
60.302566
  0
ARC
  8
daiko
 10
0.236168
 20
0.785280
 30
0.000000
 40
0.628013
 50
359.348160
 51
29.733858
  0
ARC
  8
daiko
 10
0.338554
 20
0.765406
 30
0.000000
 40
0.525740
 50
332.458598
 51
1.387363
  0
ARC
  8
daiko
 10
0.550077
 20
0.645005
 30
0.000000
 40
0.282657
 50
305.083967
 51
334.273310
  0
ARC
  8
daiko
 10
0.609477
 20
0.554545
 30
0.000000
 40
0.174524
 50
257.927141
 51
306.195828
  0
ARC
  8
daiko
 10
0.636618
 20
0.623687
 30
0.000000
 40
0.248108
 50
220.819117
 51
255.136451
  0
ARC
  8
daiko
 10
0.879709
 20
0.802871
 30
0.000000
 40
0.549695
 50
189.061432
 51
218.389844
  0
ARC
  8
daiko
 10
0.961462
 20
0.824717
 30
0.000000
 40
0.633928
 50
165.745545
 51
189.847573
  0
ARC
  8
daiko
 10
0.746281
 20
0.890463
 30
0.000000
 40
0.409324
 50
140.434426
 51
167.248804
  0
ARC
  8
daiko
 10
0.621169
 20
0.990647
 30
0.000000
 40
0.249075
 50
123.862099
 51
139.868446
  0
ARC
  8
daiko
 10
0.645516
 20
1.013668
 30
0.000000
 40
0.227042
 50
111.062805
 51
136.354345
  0
ARC
  8
daiko
 10
0.808151
 20
0.884125
 30
0.000000
 40
0.434532
 50
138.795689
 51
164.929749
  0
ARC
  8
daiko
 10
1.022264
 20
0.830028
 30
0.000000
 40
0.655356
 50
165.229945
 51
194.393863
  0
ARC
  8
daiko
 10
0.820909
 20
0.760860
 30
0.000000
 40
0.443451
 50
192.204247
 51
222.641477
  0
ARC
  8
daiko
 10
0.672908
 20
0.622272
 30
0.000000
 40
0.240707
 50
222.239486
 51
246.432945
  0
ARC
  8
daiko
 10
0.640188
 20
0.540804
 30
0.000000
 40
0.152973
 50
245.466041
 51
280.099524
  0
LINE
  8
daiko
 10
47.809960
 20
14.561638
 30
0.000000
 11
47.810761
 21
14.958202
 31
0.000000
  0
LINE
  8
daiko
 10
47.810761
 20
14.958202
 30
0.000000
 11
46.486607
 21
15.138529
 31
0.000000
  0
LINE
  8
daiko
 10
47.824416
 20
14.546672
 30
0.000000
 11
47.824416
 21
13.391361
 31
0.000000
  0
LINE
  8
daiko
 10
47.856027
 20
14.969639
 30
0.000000
 11
46.525414
 21
15.151711
 31
0.000000
  0
LINE
  8
daiko
 10
47.855227
 20
14.573767
 30
0.000000
 11
47.856027
 21
14.969639
 31
0.000000
  0
LINE
  8
daiko
 10
0.045690
 20
2.064109
 30
0.000000
 11
46.525414
 21
15.151711
 31
0.000000
  0
LINE
  8
daiko
 10
1.297713
 20
1.772300
 30
0.000000
 11
47.810761
 21
14.958202
 31
0.000000
  0
LINE
  8
daiko
 10
1.297713
 20
1.375014
 30
0.000000
 11
47.855227
 21
14.573767
 31
0.000000
  0
LINE
  8
daiko
 10
1.263247
 20
1.348119
 30
0.000000
 11
47.824416
 21
14.546672
 31
0.000000
  0
LINE
  8
daiko
 10
1.260684
 20
1.339697
 30
0.000000
 11
47.824416
 21
14.530672
 31
0.000000
  0
LINE
  8
daiko
 10
1.260684
 20
-0.006307
 30
0.000000
 11
47.824416
 21
13.391361
 31
0.000000
  0
LINE
  8
daiko
 10
1.297713
 20
1.375014
 30
0.000000
 11
1.263247
 21
1.348119
 31
0.000000
  0
LINE
  8
daiko
 10
1.263247
 20
1.348119
 30
0.000000
 11
1.263247
 21
1.747741
 31
0.000000
  0
LINE
  8
daiko
 10
-0.001245
 20
1.680564
 30
0.000000
 11
-0.000412
 21
2.044084
 31
0.000000
  0
LINE
  8
daiko
 10
-0.003963
 20
0.335294
 30
0.000000
 11
1.260684
 21
-0.006307
 31
0.000000
  0
LINE
  8
daiko
 10
-0.003963
 20
0.335294
 30
0.000000
 11
-0.003963
 21
1.673108
 31
0.000000
  0
LINE
  8
daiko
 10
1.260684
 20
-0.006307
 30
0.000000
 11
1.260684
 21
1.339697
 31
0.000000
  0
LINE
  8
daiko
 10
1.260684
 20
1.339697
 30
0.000000
 11
-0.001245
 21
1.680564
 31
0.000000
  0
LINE
  8
daiko
 10
1.297713
 20
1.772300
 30
0.000000
 11
0.059489
 21
2.065057
 31
0.000000
  0
LINE
  8
daiko
 10
1.263247
 20
1.747741
 30
0.000000
 11
-0.000412
 21
2.044084
 31
0.000000
  0
LINE
  8
daiko
 10
0.045690
 20
2.064109
 30
0.000000
 11
-0.000412
 21
2.044084
 31
0.000000
  0
LINE
  8
daiko
 10
1.297713
 20
1.772300
 30
0.000000
 11
1.297713
 21
1.375014
 31
0.000000
  0
ENDBLK
  0
ENDSEC
  0
SECTION
  2
ENTITIES
  0
INSERT
  8
daiko
  2
TOP
 10
0.003963
 20
0.006307
 30
0.000000
  0
TEXT
  8
daiko
 10
0.000000
 20
-10.000000
 30
0.000000
 40
4.000000
  1
DSY-4551FW
  7
BIGFONT
  0
TEXT
  8
daiko
 10
0.000000
 20
-14.000000
 30
0.000000
 40
3.000000
  1
LED54W         2700Kü`2000K
  7
BIGFONT
  0
TEXT
  8
daiko
 10
0.000000
 20
-18.000000
 30
0.000000
 40
3.000000
  1
ëëÉFÉ½ Ra83    öÆ
  7
BIGFONT
  0
TEXT
  8
daiko
 10
0.000000
 20
-22.000000
 30
0.000000
 40
3.000000
  1
ïð50 ÆÀ1500 ìé60mm
  7
BIGFONT
  0
ENDSEC
  0
EOF
