  0
SECTION
  2
HEADER
  9
$EXTMIN
 10
0.000000
 20
-23.000000
 30
0.000000
  9
$EXTMAX
 10
48.407458
 20
16.042747
 30
0.000000
  0
ENDSEC
  0
SECTION
  2
TABLES
  0
TABLE
  2
LTYPE
 70
    10
  0
LTYPE
  2
ByBlock
 70
     0
  3

 72
    65
 73
     0
 40
0.000000
  0
LTYPE
  2
ByLayer
 70
     0
  3

 72
    65
 73
     0
 40
0.000000
  0
LTYPE
  2
CENTER_DASH_DASH
 70
     0
  3
Center_Dash_Dash
 72
    65
 73
     6
 40
22.000000
 49
12.000000
 49
-3.000000
 49
0.500000
 49
-3.000000
 49
0.500000
 49
-3.000000
  0
LTYPE
  2
CONTINUOUS
 70
     0
  3
Solid line
 72
    65
 73
     0
 40
0.000000
  0
LTYPE
  2
DASHED
 70
     0
  3
Dashed
 72
    65
 73
     2
 40
15.000000
 49
12.000000
 49
-3.000000
  0
LTYPE
  2
DASH_CENTER
 70
     0
  3
Dash_Center
 72
    65
 73
     4
 40
36.000000
 49
24.000000
 49
-3.000000
 49
6.000000
 49
-3.000000
  0
LTYPE
  2
DOTTED
 70
     0
  3
Dotted
 72
    65
 73
     2
 40
3.500000
 49
0.500000
 49
-3.000000
  0
LTYPE
  2
DOT_CENTER
 70
     0
  3
Dot_Center
 72
    65
 73
     4
 40
2.000000
 49
1.250000
 49
-0.250000
 49
0.250000
 49
-0.250000
  0
LTYPE
  2
LONG_DASHED
 70
     0
  3
Long_Dashed
 72
    65
 73
     2
 40
2.000000
 49
1.500000
 49
-0.500000
  0
LTYPE
  2
PHANTOM
 70
     0
  3
Phantom
 72
    65
 73
     6
 40
2.500000
 49
1.250000
 49
-0.250000
 49
0.250000
 49
-0.250000
 49
0.250000
 49
-0.250000
  0
ENDTAB
  0
TABLE
  2
STYLE
 70
     3
  0
STYLE
  2
BIGFONT
 70
     0
 40
1.000000
 41
1.000000
 50
0.000000
 71
     0
 42
0.000000
  3
txt
  4
bigfont
  0
STYLE
  2
CONVERTER_1
 70
     0
 40
0.000000
 41
0.900000
 50
0.000000
 71
     0
 42
0.000000
  3
txt.shx
  4

  0
STYLE
  2
STANDARD
 70
     0
 40
0.000000
 41
1.000000
 50
0.000000
 71
     0
 42
0.000000
  3
txt
  4

  0
ENDTAB
  0
TABLE
  2
LAYER
 70
     1
  0
LAYER
  2
daiko
 70
     0
 62
     7
  6
CONTINUOUS
  0
ENDTAB
  0
ENDSEC
  0
SECTION
  2
BLOCKS
  0
BLOCK
  8
daiko
  2
TOP
 70
     0
 10
0.000000
 20
0.000000
 30
0.000000
  3
TOP
  1

  0
ARC
  8
daiko
 10
0.889181
 20
1.604431
 30
0.000000
 40
0.269097
 50
62.587244
 51
124.896782
  0
ARC
  8
daiko
 10
0.764328
 20
1.407170
 30
0.000000
 40
0.502089
 50
31.784154
 51
60.302566
  0
ARC
  8
daiko
 10
0.359957
 20
1.196891
 30
0.000000
 40
0.957191
 50
359.348160
 51
29.733858
  0
ARC
  8
daiko
 10
0.516010
 20
1.166600
 30
0.000000
 40
0.801310
 50
332.458598
 51
1.387363
  0
ARC
  8
daiko
 10
0.838404
 20
0.983090
 30
0.000000
 40
0.430815
 50
305.083967
 51
334.273310
  0
ARC
  8
daiko
 10
0.928939
 20
0.845215
 30
0.000000
 40
0.266003
 50
257.927141
 51
306.195828
  0
ARC
  8
daiko
 10
0.970307
 20
0.950598
 30
0.000000
 40
0.378155
 50
220.819117
 51
255.136451
  0
ARC
  8
daiko
 10
1.340815
 20
1.223702
 30
0.000000
 40
0.837822
 50
189.061432
 51
218.389844
  0
ARC
  8
daiko
 10
1.465420
 20
1.256999
 30
0.000000
 40
0.966207
 50
165.745545
 51
189.847573
  0
ARC
  8
daiko
 10
1.137450
 20
1.357206
 30
0.000000
 40
0.623875
 50
140.434426
 51
167.248804
  0
ARC
  8
daiko
 10
0.946759
 20
1.509902
 30
0.000000
 40
0.379630
 50
123.862099
 51
139.868446
  0
ARC
  8
daiko
 10
0.983868
 20
1.544990
 30
0.000000
 40
0.346047
 50
111.062805
 51
136.354345
  0
ARC
  8
daiko
 10
1.231749
 20
1.347546
 30
0.000000
 40
0.662296
 50
138.795689
 51
164.929749
  0
ARC
  8
daiko
 10
1.558092
 20
1.265093
 30
0.000000
 40
0.998866
 50
165.229945
 51
194.393863
  0
ARC
  8
daiko
 10
1.251195
 20
1.159670
 30
0.000000
 40
0.675889
 50
192.204247
 51
222.641477
  0
ARC
  8
daiko
 10
1.025618
 20
0.948441
 30
0.000000
 40
0.366875
 50
222.239486
 51
246.432945
  0
ARC
  8
daiko
 10
0.975747
 20
0.824271
 30
0.000000
 40
0.233155
 50
245.466041
 51
280.099524
  0
LINE
  8
daiko
 10
48.331206
 20
15.133769
 30
0.000000
 11
48.332427
 21
15.738195
 31
0.000000
  0
LINE
  8
daiko
 10
48.332427
 20
15.738195
 30
0.000000
 11
46.314206
 21
16.013042
 31
0.000000
  0
LINE
  8
daiko
 10
48.353238
 20
15.110959
 30
0.000000
 11
48.353238
 21
13.350082
 31
0.000000
  0
LINE
  8
daiko
 10
48.401418
 20
15.755628
 30
0.000000
 11
46.373354
 21
16.033133
 31
0.000000
  0
LINE
  8
daiko
 10
48.400199
 20
15.152255
 30
0.000000
 11
48.401418
 21
15.755628
 31
0.000000
  0
LINE
  8
daiko
 10
0.069638
 20
3.146028
 30
0.000000
 11
46.373354
 21
16.033133
 31
0.000000
  0
LINE
  8
daiko
 10
1.977920
 20
2.701264
 30
0.000000
 11
48.332427
 21
15.738195
 31
0.000000
  0
LINE
  8
daiko
 10
1.977920
 20
2.095739
 30
0.000000
 11
48.400199
 21
15.152255
 31
0.000000
  0
LINE
  8
daiko
 10
1.925388
 20
2.054747
 30
0.000000
 11
48.353238
 21
15.110959
 31
0.000000
  0
LINE
  8
daiko
 10
1.921482
 20
2.041909
 30
0.000000
 11
48.353238
 21
15.086572
 31
0.000000
  0
LINE
  8
daiko
 10
1.921482
 20
-0.009614
 30
0.000000
 11
48.353238
 21
13.350082
 31
0.000000
  0
LINE
  8
daiko
 10
1.977920
 20
2.095739
 30
0.000000
 11
1.925388
 21
2.054747
 31
0.000000
  0
LINE
  8
daiko
 10
1.925388
 20
2.054747
 30
0.000000
 11
1.925388
 21
2.663834
 31
0.000000
  0
LINE
  8
daiko
 10
-0.001897
 20
2.561444
 30
0.000000
 11
-0.000628
 21
3.115507
 31
0.000000
  0
LINE
  8
daiko
 10
-0.006040
 20
0.511041
 30
0.000000
 11
1.921482
 21
-0.009614
 31
0.000000
  0
LINE
  8
daiko
 10
-0.006040
 20
0.511041
 30
0.000000
 11
-0.006040
 21
2.550081
 31
0.000000
  0
LINE
  8
daiko
 10
1.921482
 20
-0.009614
 30
0.000000
 11
1.921482
 21
2.041909
 31
0.000000
  0
LINE
  8
daiko
 10
1.921482
 20
2.041909
 30
0.000000
 11
-0.001897
 21
2.561444
 31
0.000000
  0
LINE
  8
daiko
 10
1.977920
 20
2.701264
 30
0.000000
 11
0.090670
 21
3.147473
 31
0.000000
  0
LINE
  8
daiko
 10
1.925388
 20
2.663834
 30
0.000000
 11
-0.000628
 21
3.115507
 31
0.000000
  0
LINE
  8
daiko
 10
0.069638
 20
3.146028
 30
0.000000
 11
-0.000628
 21
3.115507
 31
0.000000
  0
LINE
  8
daiko
 10
1.977920
 20
2.701264
 30
0.000000
 11
1.977920
 21
2.095739
 31
0.000000
  0
ENDBLK
  0
ENDSEC
  0
SECTION
  2
ENTITIES
  0
INSERT
  8
daiko
  2
TOP
 10
0.006040
 20
0.009614
 30
0.000000
  0
TEXT
  8
daiko
 10
0.000000
 20
-10.000000
 30
0.000000
 40
4.000000
  1
DSY-4550FW
  7
BIGFONT
  0
TEXT
  8
daiko
 10
0.000000
 20
-14.000000
 30
0.000000
 40
3.000000
  1
LED43W         2700Kü`2000K
  7
BIGFONT
  0
TEXT
  8
daiko
 10
0.000000
 20
-18.000000
 30
0.000000
 40
3.000000
  1
ëëÉFÉ½ Ra83    öÆ
  7
BIGFONT
  0
TEXT
  8
daiko
 10
0.000000
 20
-22.000000
 30
0.000000
 40
3.000000
  1
ïð50 ÆÀ1200 ìé60mm
  7
BIGFONT
  0
ENDSEC
  0
EOF
