  0
SECTION
  2
HEADER
  9
$EXTMIN
 10
0.000000
 20
-23.000000
 30
0.000000
  9
$EXTMAX
 10
47.260599
 20
16.043118
 30
0.000000
  0
ENDSEC
  0
SECTION
  2
TABLES
  0
TABLE
  2
LTYPE
 70
    10
  0
LTYPE
  2
ByBlock
 70
     0
  3

 72
    65
 73
     0
 40
0.000000
  0
LTYPE
  2
ByLayer
 70
     0
  3

 72
    65
 73
     0
 40
0.000000
  0
LTYPE
  2
CENTER_DASH_DASH
 70
     0
  3
Center_Dash_Dash
 72
    65
 73
     6
 40
22.000000
 49
12.000000
 49
-3.000000
 49
0.500000
 49
-3.000000
 49
0.500000
 49
-3.000000
  0
LTYPE
  2
CONTINUOUS
 70
     0
  3
Solid line
 72
    65
 73
     0
 40
0.000000
  0
LTYPE
  2
DASHED
 70
     0
  3
Dashed
 72
    65
 73
     2
 40
15.000000
 49
12.000000
 49
-3.000000
  0
LTYPE
  2
DASH_CENTER
 70
     0
  3
Dash_Center
 72
    65
 73
     4
 40
36.000000
 49
24.000000
 49
-3.000000
 49
6.000000
 49
-3.000000
  0
LTYPE
  2
DOTTED
 70
     0
  3
Dotted
 72
    65
 73
     2
 40
3.500000
 49
0.500000
 49
-3.000000
  0
LTYPE
  2
DOT_CENTER
 70
     0
  3
Dot_Center
 72
    65
 73
     4
 40
2.000000
 49
1.250000
 49
-0.250000
 49
0.250000
 49
-0.250000
  0
LTYPE
  2
LONG_DASHED
 70
     0
  3
Long_Dashed
 72
    65
 73
     2
 40
2.000000
 49
1.500000
 49
-0.500000
  0
LTYPE
  2
PHANTOM
 70
     0
  3
Phantom
 72
    65
 73
     6
 40
2.500000
 49
1.250000
 49
-0.250000
 49
0.250000
 49
-0.250000
 49
0.250000
 49
-0.250000
  0
ENDTAB
  0
TABLE
  2
STYLE
 70
     3
  0
STYLE
  2
BIGFONT
 70
     0
 40
1.000000
 41
1.000000
 50
0.000000
 71
     0
 42
0.000000
  3
txt
  4
bigfont
  0
STYLE
  2
CONVERTER_1
 70
     0
 40
0.000000
 41
0.900000
 50
0.000000
 71
     0
 42
0.000000
  3
txt.shx
  4

  0
STYLE
  2
STANDARD
 70
     0
 40
0.000000
 41
1.000000
 50
0.000000
 71
     0
 42
0.000000
  3
txt
  4

  0
ENDTAB
  0
TABLE
  2
LAYER
 70
     1
  0
LAYER
  2
daiko
 70
     0
 62
     7
  6
CONTINUOUS
  0
ENDTAB
  0
ENDSEC
  0
SECTION
  2
BLOCKS
  0
BLOCK
  8
daiko
  2
TOP
 70
     0
 10
0.000000
 20
0.000000
 30
0.000000
  3
TOP
  1

  0
ARC
  8
daiko
 10
1.028095
 20
1.855086
 30
0.000000
 40
0.311137
 50
62.587244
 51
124.896782
  0
ARC
  8
daiko
 10
0.883736
 20
1.627007
 30
0.000000
 40
0.580529
 50
31.784154
 51
60.302566
  0
ARC
  8
daiko
 10
0.416192
 20
1.383877
 30
0.000000
 40
1.106730
 50
359.348160
 51
29.733858
  0
ARC
  8
daiko
 10
0.596625
 20
1.348854
 30
0.000000
 40
0.926497
 50
332.458598
 51
1.387363
  0
ARC
  8
daiko
 10
0.969385
 20
1.136675
 30
0.000000
 40
0.498119
 50
305.083967
 51
334.273310
  0
ARC
  8
daiko
 10
1.074064
 20
0.977260
 30
0.000000
 40
0.307559
 50
257.927141
 51
306.195828
  0
ARC
  8
daiko
 10
1.121894
 20
1.099106
 30
0.000000
 40
0.437233
 50
220.819117
 51
255.136451
  0
ARC
  8
daiko
 10
1.550286
 20
1.414877
 30
0.000000
 40
0.968712
 50
189.061432
 51
218.389844
  0
ARC
  8
daiko
 10
1.694357
 20
1.453376
 30
0.000000
 40
1.117154
 50
165.745545
 51
189.847573
  0
ARC
  8
daiko
 10
1.315150
 20
1.569238
 30
0.000000
 40
0.721341
 50
140.434426
 51
167.248804
  0
ARC
  8
daiko
 10
1.094668
 20
1.745789
 30
0.000000
 40
0.438938
 50
123.862099
 51
139.868446
  0
ARC
  8
daiko
 10
1.137575
 20
1.786359
 30
0.000000
 40
0.400109
 50
111.062805
 51
136.354345
  0
ARC
  8
daiko
 10
1.424181
 20
1.558068
 30
0.000000
 40
0.765764
 50
138.795689
 51
164.929749
  0
ARC
  8
daiko
 10
1.801507
 20
1.462735
 30
0.000000
 40
1.154916
 50
165.229945
 51
194.393863
  0
ARC
  8
daiko
 10
1.446664
 20
1.340841
 30
0.000000
 40
0.781481
 50
192.204247
 51
222.641477
  0
ARC
  8
daiko
 10
1.185847
 20
1.096613
 30
0.000000
 40
0.424190
 50
222.239486
 51
246.432945
  0
ARC
  8
daiko
 10
1.128185
 20
0.953044
 30
0.000000
 40
0.269580
 50
245.466041
 51
280.099524
  0
LINE
  8
daiko
 10
47.172433
 20
14.992134
 30
0.000000
 11
47.173845
 21
15.690988
 31
0.000000
  0
LINE
  8
daiko
 10
47.173845
 20
15.690988
 30
0.000000
 11
44.840325
 21
16.008773
 31
0.000000
  0
LINE
  8
daiko
 10
47.197908
 20
14.965761
 30
0.000000
 11
47.197908
 21
12.929787
 31
0.000000
  0
LINE
  8
daiko
 10
47.253615
 20
15.711144
 30
0.000000
 11
44.908712
 21
16.032003
 31
0.000000
  0
LINE
  8
daiko
 10
47.252205
 20
15.013509
 30
0.000000
 11
47.253615
 21
15.711144
 31
0.000000
  0
LINE
  8
daiko
 10
0.080518
 20
3.637521
 30
0.000000
 11
44.908712
 21
16.032003
 31
0.000000
  0
LINE
  8
daiko
 10
2.286924
 20
3.123274
 30
0.000000
 11
47.173845
 21
15.690988
 31
0.000000
  0
LINE
  8
daiko
 10
2.286924
 20
2.423149
 30
0.000000
 11
47.252205
 21
15.013509
 31
0.000000
  0
LINE
  8
daiko
 10
2.226186
 20
2.375753
 30
0.000000
 11
47.197908
 21
14.965761
 31
0.000000
  0
LINE
  8
daiko
 10
2.221668
 20
2.360910
 30
0.000000
 11
47.197908
 21
14.937564
 31
0.000000
  0
LINE
  8
daiko
 10
2.221668
 20
-0.011115
 30
0.000000
 11
47.197908
 21
12.929787
 31
0.000000
  0
LINE
  8
daiko
 10
2.286924
 20
2.423149
 30
0.000000
 11
2.226186
 21
2.375753
 31
0.000000
  0
LINE
  8
daiko
 10
2.226186
 20
2.375753
 30
0.000000
 11
2.226186
 21
3.079996
 31
0.000000
  0
LINE
  8
daiko
 10
-0.002194
 20
2.961610
 30
0.000000
 11
-0.000726
 21
3.602232
 31
0.000000
  0
LINE
  8
daiko
 10
-0.006984
 20
0.590879
 30
0.000000
 11
2.221668
 21
-0.011115
 31
0.000000
  0
LINE
  8
daiko
 10
-0.006984
 20
0.590879
 30
0.000000
 11
-0.006984
 21
2.948472
 31
0.000000
  0
LINE
  8
daiko
 10
2.221668
 20
-0.011115
 30
0.000000
 11
2.221668
 21
2.360910
 31
0.000000
  0
LINE
  8
daiko
 10
2.221668
 20
2.360910
 30
0.000000
 11
-0.002194
 21
2.961610
 31
0.000000
  0
LINE
  8
daiko
 10
2.286924
 20
3.123274
 30
0.000000
 11
0.104836
 21
3.639193
 31
0.000000
  0
LINE
  8
daiko
 10
2.226186
 20
3.079996
 30
0.000000
 11
-0.000726
 21
3.602232
 31
0.000000
  0
LINE
  8
daiko
 10
0.080518
 20
3.637521
 30
0.000000
 11
-0.000726
 21
3.602232
 31
0.000000
  0
LINE
  8
daiko
 10
2.286924
 20
3.123274
 30
0.000000
 11
2.286924
 21
2.423149
 31
0.000000
  0
ENDBLK
  0
ENDSEC
  0
SECTION
  2
ENTITIES
  0
INSERT
  8
daiko
  2
TOP
 10
0.006984
 20
0.011115
 30
0.000000
  0
TEXT
  8
daiko
 10
0.000000
 20
-10.000000
 30
0.000000
 40
4.000000
  1
DSY-4548FW
  7
BIGFONT
  0
TEXT
  8
daiko
 10
0.000000
 20
-14.000000
 30
0.000000
 40
3.000000
  1
LED22W         2700Kü`2000K
  7
BIGFONT
  0
TEXT
  8
daiko
 10
0.000000
 20
-18.000000
 30
0.000000
 40
3.000000
  1
ëëÉFÉ½ Ra83    öÆ
  7
BIGFONT
  0
TEXT
  8
daiko
 10
0.000000
 20
-22.000000
 30
0.000000
 40
3.000000
  1
ïð50 ÆÀ600 ìé60mm
  7
BIGFONT
  0
ENDSEC
  0
EOF
