  0
SECTION
  2
HEADER
  9
$EXTMIN
 10
0.000000
 20
-23.000000
 30
0.000000
  9
$EXTMAX
 10
49.260600
 20
20.238210
 30
0.000000
  0
ENDSEC
  0
SECTION
  2
TABLES
  0
TABLE
  2
LTYPE
 70
    10
  0
LTYPE
  2
ByBlock
 70
     0
  3

 72
    65
 73
     0
 40
0.000000
  0
LTYPE
  2
ByLayer
 70
     0
  3

 72
    65
 73
     0
 40
0.000000
  0
LTYPE
  2
CENTER_DASH_DASH
 70
     0
  3
Center_Dash_Dash
 72
    65
 73
     6
 40
22.000000
 49
12.000000
 49
-3.000000
 49
0.500000
 49
-3.000000
 49
0.500000
 49
-3.000000
  0
LTYPE
  2
CONTINUOUS
 70
     0
  3
Solid line
 72
    65
 73
     0
 40
0.000000
  0
LTYPE
  2
DASHED
 70
     0
  3
Dashed
 72
    65
 73
     2
 40
15.000000
 49
12.000000
 49
-3.000000
  0
LTYPE
  2
DASH_CENTER
 70
     0
  3
Dash_Center
 72
    65
 73
     4
 40
36.000000
 49
24.000000
 49
-3.000000
 49
6.000000
 49
-3.000000
  0
LTYPE
  2
DOTTED
 70
     0
  3
Dotted
 72
    65
 73
     2
 40
3.500000
 49
0.500000
 49
-3.000000
  0
LTYPE
  2
DOT_CENTER
 70
     0
  3
Dot_Center
 72
    65
 73
     4
 40
2.000000
 49
1.250000
 49
-0.250000
 49
0.250000
 49
-0.250000
  0
LTYPE
  2
LONG_DASHED
 70
     0
  3
Long_Dashed
 72
    65
 73
     2
 40
2.000000
 49
1.500000
 49
-0.500000
  0
LTYPE
  2
PHANTOM
 70
     0
  3
Phantom
 72
    65
 73
     6
 40
2.500000
 49
1.250000
 49
-0.250000
 49
0.250000
 49
-0.250000
 49
0.250000
 49
-0.250000
  0
ENDTAB
  0
TABLE
  2
STYLE
 70
     3
  0
STYLE
  2
BIGFONT
 70
     0
 40
1.000000
 41
1.000000
 50
0.000000
 71
     0
 42
0.000000
  3
txt
  4
bigfont
  0
STYLE
  2
CONVERTER_1
 70
     0
 40
0.000000
 41
0.900000
 50
0.000000
 71
     0
 42
0.000000
  3
txt.shx
  4

  0
STYLE
  2
STANDARD
 70
     0
 40
0.000000
 41
1.000000
 50
0.000000
 71
     0
 42
0.000000
  3
txt
  4

  0
ENDTAB
  0
TABLE
  2
LAYER
 70
     1
  0
LAYER
  2
daiko
 70
     0
 62
     7
  6
CONTINUOUS
  0
ENDTAB
  0
ENDSEC
  0
SECTION
  2
BLOCKS
  0
BLOCK
  8
daiko
  2
TOP
 70
     0
 10
0.000000
 20
0.000000
 30
0.000000
  3
TOP
  1

  0
ARC
  8
daiko
 10
2.550147
 20
4.601462
 30
0.000000
 40
0.771761
 50
62.587244
 51
124.896782
  0
ARC
  8
daiko
 10
2.192071
 20
4.035724
 30
0.000000
 40
1.439977
 50
31.784154
 51
60.302566
  0
ARC
  8
daiko
 10
1.032346
 20
3.432649
 30
0.000000
 40
2.745197
 50
359.348160
 51
29.733858
  0
ARC
  8
daiko
 10
1.479903
 20
3.345776
 30
0.000000
 40
2.298136
 50
332.458598
 51
1.387363
  0
ARC
  8
daiko
 10
2.404518
 20
2.819475
 30
0.000000
 40
1.235564
 50
305.083967
 51
334.273310
  0
ARC
  8
daiko
 10
2.664170
 20
2.424052
 30
0.000000
 40
0.762888
 50
257.927141
 51
306.195828
  0
ARC
  8
daiko
 10
2.782812
 20
2.726288
 30
0.000000
 40
1.084539
 50
220.819117
 51
255.136451
  0
ARC
  8
daiko
 10
3.845419
 20
3.509544
 30
0.000000
 40
2.402849
 50
189.061432
 51
218.389844
  0
ARC
  8
daiko
 10
4.202783
 20
3.605038
 30
0.000000
 40
2.771053
 50
165.745545
 51
189.847573
  0
ARC
  8
daiko
 10
3.262174
 20
3.892430
 30
0.000000
 40
1.789256
 50
140.434426
 51
167.248804
  0
ARC
  8
daiko
 10
2.715279
 20
4.330356
 30
0.000000
 40
1.088768
 50
123.862099
 51
139.868446
  0
ARC
  8
daiko
 10
2.821706
 20
4.430988
 30
0.000000
 40
0.992454
 50
111.062805
 51
136.354345
  0
ARC
  8
daiko
 10
3.532622
 20
3.864723
 30
0.000000
 40
1.899446
 50
138.795689
 51
164.929749
  0
ARC
  8
daiko
 10
4.468564
 20
3.628252
 30
0.000000
 40
2.864721
 50
165.229945
 51
194.393863
  0
ARC
  8
daiko
 10
3.588391
 20
3.325901
 30
0.000000
 40
1.938432
 50
192.204247
 51
222.641477
  0
ARC
  8
daiko
 10
2.941444
 20
2.720103
 30
0.000000
 40
1.052187
 50
222.239486
 51
246.432945
  0
ARC
  8
daiko
 10
2.798415
 20
2.363986
 30
0.000000
 40
0.668682
 50
245.466041
 51
280.099524
  0
LINE
  8
daiko
 10
49.041908
 20
17.631286
 30
0.000000
 11
49.045410
 21
19.364764
 31
0.000000
  0
LINE
  8
daiko
 10
49.045410
 20
19.364764
 30
0.000000
 11
43.257210
 21
20.153017
 31
0.000000
  0
LINE
  8
daiko
 10
49.105097
 20
17.565868
 30
0.000000
 11
49.105097
 21
12.515721
 31
0.000000
  0
LINE
  8
daiko
 10
49.243276
 20
19.414760
 30
0.000000
 11
43.426844
 21
20.210638
 31
0.000000
  0
LINE
  8
daiko
 10
49.239779
 20
17.684305
 30
0.000000
 11
49.243276
 21
19.414760
 31
0.000000
  0
LINE
  8
daiko
 10
0.199720
 20
9.022719
 30
0.000000
 11
43.426844
 21
20.210638
 31
0.000000
  0
LINE
  8
daiko
 10
5.672619
 20
7.747151
 30
0.000000
 11
49.045410
 21
19.364764
 31
0.000000
  0
LINE
  8
daiko
 10
5.672619
 20
6.010520
 30
0.000000
 11
49.239779
 21
17.684305
 31
0.000000
  0
LINE
  8
daiko
 10
5.521960
 20
5.892956
 30
0.000000
 11
49.105097
 21
17.565868
 31
0.000000
  0
LINE
  8
daiko
 10
5.510756
 20
5.856138
 30
0.000000
 11
49.105097
 21
17.495928
 31
0.000000
  0
LINE
  8
daiko
 10
5.510756
 20
-0.027572
 30
0.000000
 11
49.105097
 21
12.515721
 31
0.000000
  0
LINE
  8
daiko
 10
5.672619
 20
6.010520
 30
0.000000
 11
5.521960
 21
5.892956
 31
0.000000
  0
LINE
  8
daiko
 10
5.521960
 20
5.892956
 30
0.000000
 11
5.521960
 21
7.639801
 31
0.000000
  0
LINE
  8
daiko
 10
-0.005442
 20
7.346151
 30
0.000000
 11
-0.001801
 21
8.935187
 31
0.000000
  0
LINE
  8
daiko
 10
-0.017324
 20
1.465651
 30
0.000000
 11
5.510756
 21
-0.027572
 31
0.000000
  0
LINE
  8
daiko
 10
-0.017324
 20
1.465651
 30
0.000000
 11
-0.017324
 21
7.313562
 31
0.000000
  0
LINE
  8
daiko
 10
5.510756
 20
-0.027572
 30
0.000000
 11
5.510756
 21
5.856138
 31
0.000000
  0
LINE
  8
daiko
 10
5.510756
 20
5.856138
 30
0.000000
 11
-0.005442
 21
7.346151
 31
0.000000
  0
LINE
  8
daiko
 10
5.672619
 20
7.747151
 30
0.000000
 11
0.260040
 21
9.026865
 31
0.000000
  0
LINE
  8
daiko
 10
5.521960
 20
7.639801
 30
0.000000
 11
-0.001801
 21
8.935187
 31
0.000000
  0
LINE
  8
daiko
 10
0.199720
 20
9.022719
 30
0.000000
 11
-0.001801
 21
8.935187
 31
0.000000
  0
LINE
  8
daiko
 10
5.672619
 20
7.747151
 30
0.000000
 11
5.672619
 21
6.010520
 31
0.000000
  0
ENDBLK
  0
ENDSEC
  0
SECTION
  2
ENTITIES
  0
INSERT
  8
daiko
  2
TOP
 10
0.017324
 20
0.027572
 30
0.000000
  0
TEXT
  8
daiko
 10
0.000000
 20
-10.000000
 30
0.000000
 40
4.000000
  1
DSY-4547FW
  7
BIGFONT
  0
TEXT
  8
daiko
 10
0.000000
 20
-14.000000
 30
0.000000
 40
3.000000
  1
LED14W         2700Kü`2000K
  7
BIGFONT
  0
TEXT
  8
daiko
 10
0.000000
 20
-18.000000
 30
0.000000
 40
3.000000
  1
ëëÉFÉ½ Ra83    öÆ
  7
BIGFONT
  0
TEXT
  8
daiko
 10
0.000000
 20
-22.000000
 30
0.000000
 40
3.000000
  1
ïð50 ÆÀ300 ìé60mm
  7
BIGFONT
  0
ENDSEC
  0
EOF
