  0
SECTION
  2
HEADER
  9
$ACADVER
  1
AC1009
  9
$INSBASE
 10
0.0
 20
0.0
 30
0.0
  9
$EXTMIN
 10
0.0
 20
-10.0
 30
0.0
  9
$EXTMAX
 10
36.930551155195587
 20
49.424546579310878
 30
0.0
  9
$LIMMIN
 10
0.0
 20
0.0
  9
$LIMMAX
 10
12.0
 20
9.0
  9
$ORTHOMODE
 70
     0
  9
$REGENMODE
 70
     1
  9
$FILLMODE
 70
     1
  9
$QTEXTMODE
 70
     0
  9
$MIRRTEXT
 70
     0
  9
$DRAGMODE
 70
     2
  9
$LTSCALE
 40
1.0
  9
$OSMODE
 70
    37
  9
$ATTMODE
 70
     1
  9
$TEXTSIZE
 40
0.0
  9
$TRACEWID
 40
0.05
  9
$TEXTSTYLE
  7
STANDARD
  9
$CLAYER
  8
0
  9
$CELTYPE
  6
CONTINUOUS
  9
$CECOLOR
 62
   256
  9
$DIMSCALE
 40
1.0
  9
$DIMASZ
 40
0.18
  9
$DIMEXO
 40
0.0625
  9
$DIMDLI
 40
0.38
  9
$DIMRND
 40
0.0
  9
$DIMDLE
 40
0.0
  9
$DIMEXE
 40
0.18
  9
$DIMTP
 40
0.0
  9
$DIMTM
 40
0.0
  9
$DIMTXT
 40
0.18
  9
$DIMCEN
 40
0.09
  9
$DIMTSZ
 40
0.0
  9
$DIMTOL
 70
     0
  9
$DIMLIM
 70
     0
  9
$DIMTIH
 70
     1
  9
$DIMTOH
 70
     1
  9
$DIMSE1
 70
     0
  9
$DIMSE2
 70
     0
  9
$DIMTAD
 70
     0
  9
$DIMZIN
 70
     0
  9
$DIMBLK
  1

  9
$DIMASO
 70
     1
  9
$DIMSHO
 70
     1
  9
$DIMPOST
  1

  9
$DIMAPOST
  1

  9
$DIMALT
 70
     0
  9
$DIMALTD
 70
     2
  9
$DIMALTF
 40
25.399999999999999
  9
$DIMLFAC
 40
1.0
  9
$DIMTOFL
 70
     0
  9
$DIMTVP
 40
0.0
  9
$DIMTIX
 70
     0
  9
$DIMSOXD
 70
     0
  9
$DIMSAH
 70
     0
  9
$DIMBLK1
  1

  9
$DIMBLK2
  1

  9
$DIMSTYLE
  2
STANDARD
  9
$DIMCLRD
 70
     0
  9
$DIMCLRE
 70
     0
  9
$DIMCLRT
 70
     0
  9
$DIMTFAC
 40
1.0
  9
$DIMGAP
 40
0.09
  9
$LUNITS
 70
     2
  9
$LUPREC
 70
     4
  9
$SKETCHINC
 40
0.1
  9
$FILLETRAD
 40
0.0
  9
$AUNITS
 70
     0
  9
$AUPREC
 70
     0
  9
$MENU
  1
.
  9
$ELEVATION
 40
0.0
  9
$PELEVATION
 40
0.0
  9
$THICKNESS
 40
0.0
  9
$LIMCHECK
 70
     0
  9
$BLIPMODE
 70
     0
  9
$CHAMFERA
 40
0.0
  9
$CHAMFERB
 40
0.0
  9
$SKPOLY
 70
     0
  9
$TDCREATE
 40
2458281.7342775119
  9
$TDUPDATE
 40
2458281.7575726961
  9
$TDINDWG
 40
0.0000374306
  9
$TDUSRTIMER
 40
0.0000374306
  9
$USRTIMER
 70
     1
  9
$ANGBASE
 50
0.0
  9
$ANGDIR
 70
     0
  9
$PDMODE
 70
     0
  9
$PDSIZE
 40
0.0
  9
$PLINEWID
 40
0.0
  9
$COORDS
 70
     1
  9
$SPLFRAME
 70
     0
  9
$SPLINETYPE
 70
     6
  9
$SPLINESEGS
 70
     8
  9
$ATTDIA
 70
     0
  9
$ATTREQ
 70
     1
  9
$HANDLING
 70
     1
  9
$HANDSEED
  5
1A9
  9
$SURFTAB1
 70
     6
  9
$SURFTAB2
 70
     6
  9
$SURFTYPE
 70
     6
  9
$SURFU
 70
     6
  9
$SURFV
 70
     6
  9
$UCSNAME
  2

  9
$UCSORG
 10
0.0
 20
0.0
 30
0.0
  9
$UCSXDIR
 10
1.0
 20
0.0
 30
0.0
  9
$UCSYDIR
 10
0.0
 20
1.0
 30
0.0
  9
$PUCSNAME
  2

  9
$PUCSORG
 10
0.0
 20
0.0
 30
0.0
  9
$PUCSXDIR
 10
1.0
 20
0.0
 30
0.0
  9
$PUCSYDIR
 10
0.0
 20
1.0
 30
0.0
  9
$USERI1
 70
     0
  9
$USERI2
 70
     0
  9
$USERI3
 70
     0
  9
$USERI4
 70
     0
  9
$USERI5
 70
     0
  9
$USERR1
 40
0.0
  9
$USERR2
 40
0.0
  9
$USERR3
 40
0.0
  9
$USERR4
 40
0.0
  9
$USERR5
 40
0.0
  9
$WORLDVIEW
 70
     1
  9
$SHADEDGE
 70
     3
  9
$SHADEDIF
 70
    70
  9
$TILEMODE
 70
     1
  9
$MAXACTVP
 70
    64
  9
$PLIMCHECK
 70
     0
  9
$PEXTMIN
 10
1.0000000000000000E+020
 20
1.0000000000000000E+020
 30
1.0000000000000000E+020
  9
$PEXTMAX
 10
-1.0000000000000000E+020
 20
-1.0000000000000000E+020
 30
-1.0000000000000000E+020
  9
$PLIMMIN
 10
0.0
 20
0.0
  9
$PLIMMAX
 10
12.0
 20
9.0
  9
$UNITMODE
 70
     0
  9
$VISRETAIN
 70
     1
  9
$PLINEGEN
 70
     0
  9
$PSLTSCALE
 70
     1
  0
ENDSEC
  0
SECTION
  2
TABLES
  0
TABLE
  2
VPORT
 70
     2
  0
VPORT
  2
*ACTIVE
 70
     0
 10
0.0
 20
0.0
 11
1.0
 21
1.0
 12
18.465990135264519
 22
19.712037561685271
 13
0.0
 23
0.0
 14
1.0
 24
1.0
 15
0.0
 25
0.0
 16
0.0
 26
0.0
 36
1.0
 17
0.0
 27
0.0
 37
0.0
 40
59.963071241894198
 41
2.05722891566265
 42
50.0
 43
0.0
 44
0.0
 50
0.0
 51
0.0
 71
     0
 72
   100
 73
     1
 74
     1
 75
     0
 76
     0
 77
     0
 78
     0
  0
ENDTAB
  0
TABLE
  2
LTYPE
 70
     8
  0
LTYPE
  2
CONTINUOUS
 70
     0
  3
Solid line
 72
    65
 73
     0
 40
0.0
  0
LTYPE
  2
CENTER_DASH_DASH
 70
     0
  3
Center_Dash_Dash
 72
    65
 73
     6
 40
22.0
 49
12.0
 49
-3.0
 49
0.5
 49
-3.0
 49
0.5
 49
-3.0
  0
LTYPE
  2
DASHED
 70
     0
  3
Dashed
 72
    65
 73
     2
 40
15.0
 49
12.0
 49
-3.0
  0
LTYPE
  2
DASH_CENTER
 70
     0
  3
Dash_Center
 72
    65
 73
     4
 40
36.0
 49
24.0
 49
-3.0
 49
6.0
 49
-3.0
  0
LTYPE
  2
DOTTED
 70
     0
  3
Dotted
 72
    65
 73
     2
 40
3.5
 49
0.5
 49
-3.0
  0
LTYPE
  2
DOT_CENTER
 70
     0
  3
Dot_Center
 72
    65
 73
     4
 40
2.0
 49
1.25
 49
-0.25
 49
0.25
 49
-0.25
  0
LTYPE
  2
LONG_DASHED
 70
     0
  3
Long_Dashed
 72
    65
 73
     2
 40
2.0
 49
1.5
 49
-0.5
  0
LTYPE
  2
PHANTOM
 70
     0
  3
Phantom
 72
    65
 73
     6
 40
2.5
 49
1.25
 49
-0.25
 49
0.25
 49
-0.25
 49
0.25
 49
-0.25
  0
ENDTAB
  0
TABLE
  2
LAYER
 70
     2
  0
LAYER
  2
0
 70
     0
 62
     7
  6
CONTINUOUS
  0
LAYER
  2
DAIKO
 70
     0
 62
     7
  6
CONTINUOUS
  0
ENDTAB
  0
TABLE
  2
STYLE
 70
     3
  0
STYLE
  2
STANDARD
 70
     0
 40
0.0
 41
1.0
 50
0.0
 71
     0
 42
0.0
  3
txt
  4

  0
STYLE
  2
BIGFONT
 70
     0
 40
1.0
 41
1.0
 50
0.0
 71
     0
 42
0.0
  3
txt
  4
bigfont
  0
STYLE
  2
CONVERTER_1
 70
     0
 40
0.0
 41
0.9
 50
0.0
 71
     0
 42
0.0
  3
txt.shx
  4

  0
ENDTAB
  0
TABLE
  2
VIEW
 70
     0
  0
ENDTAB
  0
TABLE
  2
UCS
 70
     0
  0
ENDTAB
  0
TABLE
  2
APPID
 70
     1
  0
APPID
  2
ACAD
 70
     0
  0
ENDTAB
  0
TABLE
  2
DIMSTYLE
 70
     1
  0
DIMSTYLE
  2
STANDARD
 70
     0
  3

  4

  5

  6

  7

 40
1.0
 41
0.18
 42
0.0625
 43
0.38
 44
0.18
 45
0.0
 46
0.0
 47
0.0
 48
0.0
140
0.18
141
0.09
142
0.0
143
25.399999999999999
144
1.0
145
0.0
146
1.0
147
0.09
 71
     0
 72
     0
 73
     1
 74
     1
 75
     0
 76
     0
 77
     0
 78
     0
170
     0
171
     2
172
     0
173
     0
174
     0
175
     0
176
     0
177
     0
178
     0
  0
ENDTAB
  0
ENDSEC
  0
SECTION
  2
BLOCKS
  0
BLOCK
  8
0
  2
$MODEL_SPACE
 70
     0
 10
0.0
 20
0.0
 30
0.0
  3
$MODEL_SPACE
  1

  0
ENDBLK
  5
24
  8
0
  0
BLOCK
 67
     1
  8
0
  2
$PAPER_SPACE
 70
     0
 10
0.0
 20
0.0
 30
0.0
  3
$PAPER_SPACE
  1

  0
ENDBLK
  5
20
 67
     1
  8
0
  0
ENDSEC
  0
SECTION
  2
ENTITIES
  0
ARC
  5
33
  8
DAIKO
 10
6.8279899999999989
 20
13.101884
 30
0.0
 40
1.037366999999999
 50
117.17883
 51
276.25849899999997
  0
ARC
  5
34
  8
DAIKO
 10
20.677261999999999
 20
137.886563
 30
0.0
 40
115.16986300000001
 50
269.93102699999997
 51
275.00394
  0
ARC
  5
35
  8
DAIKO
 10
28.652773
 20
53.870733999999999
 30
0.0
 40
30.784766000000001
 50
273.85571099999999
 51
282.48220400000002
  0
ARC
  5
36
  8
DAIKO
 10
34.843027999999997
 20
27.484946999999998
 30
0.0
 40
3.7004619999999999
 50
277.19472100000002
 51
298.48974099999998
  0
ARC
  5
37
  8
DAIKO
 10
36.280437999999997
 20
24.893405999999999
 30
0.0
 40
0.7376050000000001
 50
296.378423
 51
331.809753
  0
ARC
  5
38
  8
DAIKO
 10
36.596195000000002
 20
24.598427999999998
 30
0.0
 40
0.338604
 50
350.91471000000001
 51
56.414682999999989
  0
ARC
  5
39
  8
DAIKO
 10
35.403202
 20
23.071722000000001
 30
0.0
 40
2.2752870000000001
 50
52.652399000000003
 51
80.921152000000006
  0
ARC
  5
3A
  8
DAIKO
 10
29.121027000000002
 20
-1.908680999999999
 30
0.0
 40
28.025438000000001
 50
76.292197000000002
 51
85.061130000000006
  0
ARC
  5
3B
  8
DAIKO
 10
20.796275000000001
 20
-86.171157999999977
 30
0.0
 40
112.69655400000001
 50
84.532658999999995
 51
89.657880000000006
  0
ARC
  5
3C
  8
DAIKO
 10
19.67550799999999
 20
-130.072802
 30
0.0
 40
156.606461
 50
89.343750000000014
 51
90.000330000000005
  0
ARC
  5
3D
  8
DAIKO
 10
19.768298000000001
 20
-144.27061499999999
 30
0.0
 40
170.461781
 50
88.30731999999999
 51
90.031492000000014
  0
ARC
  5
3E
  8
DAIKO
 10
21.460173999999999
 20
-94.338451000000006
 30
0.0
 40
120.50162400000001
 50
85.549150999999995
 51
88.410124999999994
  0
ARC
  5
3F
  8
DAIKO
 10
28.866091000000001
 20
-6.1309629999999986
 30
0.0
 40
31.989947999999998
 50
78.166431000000003
 51
86.513396
  0
ARC
  5
40
  8
DAIKO
 10
35.097107000000001
 20
22.775345000000002
 30
0.0
 40
2.4262009999999989
 50
60.808518999999983
 51
82.202992000000009
  0
ARC
  5
41
  8
DAIKO
 10
35.762946999999997
 20
24.032867
 30
0.0
 40
1.0041539999999991
 50
42.533608000000001
 51
58.979106999999992
  0
ARC
  5
42
  8
DAIKO
 10
36.377867999999999
 20
24.638351
 30
0.0
 40
0.144948
 50
322.57245699999999
 51
30.39910900000001
  0
ARC
  5
43
  8
DAIKO
 10
35.715913
 20
25.188870000000001
 30
0.0
 40
1.005808
 50
289.83259199999998
 51
320.58562000000001
  0
ARC
  5
44
  8
DAIKO
 10
34.572023000000002
 20
28.388135999999999
 30
0.0
 40
4.4034199999999988
 50
280.73508600000002
 51
289.71051399999999
  0
ARC
  5
45
  8
DAIKO
 10
30.106933999999999
 20
48.242663999999998
 30
0.0
 40
24.751759
 50
275.365183
 51
282.32945100000001
  0
ARC
  5
46
  8
DAIKO
 10
21.868089999999999
 20
132.477306
 30
0.0
 40
109.38821299999999
 50
271.16647999999998
 51
275.53621500000003
  0
ARC
  5
47
  8
DAIKO
 10
19.720652000000001
 20
197.99560399999999
 30
0.0
 40
174.93853999999999
 50
270.26790099999999
 51
271.43282099999999
  0
ARC
  5
48
  8
DAIKO
 10
19.777009
 20
22.107714000000001
 30
0.0
 40
9.8325220000000009
 50
82.466713999999996
 51
90.596731000000034
  0
ARC
  5
49
  8
DAIKO
 10
20.923517
 20
29.974360999999998
 30
0.0
 40
1.8864029999999989
 50
66.550831000000002
 51
85.665993
  0
ARC
  5
4A
  8
DAIKO
 10
21.641769
 20
31.586545000000001
 30
0.0
 40
0.122784
 50
10.130571
 51
74.692709999999991
  0
ARC
  5
4B
  8
DAIKO
 10
20.064592999999999
 20
32.857995000000003
 30
0.0
 40
1.289329999999999
 50
310.43048099999999
 51
321.32538
  0
ARC
  5
4C
  8
DAIKO
 10
15.523832999999989
 20
36.921533000000011
 30
0.0
 40
7.3812300000000004
 50
318.72465999999997
 51
324.62867
  0
ARC
  5
4D
  8
DAIKO
 10
20.886773000000002
 20
31.530083999999999
 30
0.0
 40
1.085145
 50
65.563267999999994
 51
79.457815999999994
  0
ARC
  5
4E
  8
DAIKO
 10
21.282838999999999
 20
32.397199000000001
 30
0.0
 40
0.131873
 50
32.191262999999999
 51
66.375747000000004
  0
ARC
  5
4F
  8
DAIKO
 10
21.362369000000001
 20
32.443658999999997
 30
0.0
 40
0.039933
 50
322.80564500000003
 51
36.574669000000007
  0
ARC
  5
50
  8
DAIKO
 10
21.279247999999999
 20
32.494996
 30
0.0
 40
0.1375
 50
294.494392
 51
326.70656700000001
  0
ARC
  5
51
  8
DAIKO
 10
19.772345000000001
 20
25.828185000000001
 30
0.0
 40
6.2973460000000001
 50
82.092438000000016
 51
88.923918999999984
  0
ARC
  5
52
  8
DAIKO
 10
19.765177000000001
 20
24.007300999999998
 30
0.0
 40
8.7003350000000008
 50
84.135728999999998
 51
89.173945999999987
  0
ARC
  5
53
  8
DAIKO
 10
20.671581
 20
45.848729999999989
 30
0.0
 40
21.998560999999999
 50
269.65369500000003
 51
277.5395630000001
  0
ARC
  5
54
  8
DAIKO
 10
23.498275
 20
25.112921
 30
0.0
 40
1.0742259999999999
 50
273.18872800000003
 51
292.30483299999997
  0
ARC
  5
55
  8
DAIKO
 10
23.881316999999999
 20
24.239445
 30
0.0
 40
0.122875
 50
281.57930800000003
 51
337.299532
  0
ARC
  5
56
  8
DAIKO
 10
23.806739
 20
24.063735999999999
 30
0.0
 40
0.227547
 50
34.318621999999998
 51
81.474446999999984
  0
ARC
  5
57
  8
DAIKO
 10
22.501642
 20
18.650117999999999
 30
0.0
 40
5.7954160000000003
 50
76.643138000000008
 51
88.327933999999985
  0
ARC
  5
58
  8
DAIKO
 10
19.820457000000001
 20
-17.078561000000001
 30
0.0
 40
41.619343000000001
 50
86.073040000000006
 51
90.200788000000003
  0
ARC
  5
59
  8
DAIKO
 10
20.491101
 20
24.182663000000002
 30
0.0
 40
0.048595
 50
12.338824000000001
 51
47.778539000000002
  0
ARC
  5
5A
  8
DAIKO
 10
20.391293999999998
 20
24.037807000000001
 30
0.0
 40
0.2241659999999999
 50
53.778265000000012
 51
70.791753
  0
ARC
  5
5B
  8
DAIKO
 10
19.764551000000001
 20
21.456271999999998
 30
0.0
 40
2.879718
 50
75.921503999999999
 51
91.789878999999999
  0
ARC
  5
5C
  8
DAIKO
 10
19.761897999999999
 20
-21.165185999999999
 30
0.0
 40
45.921797999999988
 50
87.383037000000016
 51
90.108913999999999
  0
ARC
  5
5D
  8
DAIKO
 10
21.715374000000001
 20
13.412081000000001
 30
0.0
 40
11.297548000000001
 50
79.617434000000003
 51
89.273454000000001
  0
ARC
  5
5E
  8
DAIKO
 10
23.720828000000001
 20
24.148823
 30
0.0
 40
0.377067
 50
43.42687999999999
 51
85.346885999999998
  0
ARC
  5
5F
  8
DAIKO
 10
15.628384
 20
24.148823
 30
0.0
 40
0.377067
 50
94.653114000000002
 51
136.57311999999999
  0
ARC
  5
60
  8
DAIKO
 10
17.633837
 20
13.412081000000001
 30
0.0
 40
11.297548000000001
 50
90.726545999999985
 51
100.382566
  0
ARC
  5
61
  8
DAIKO
 10
19.587313000000002
 20
-21.165185999999999
 30
0.0
 40
45.921797999999988
 50
89.891085999999987
 51
92.616962999999984
  0
ARC
  5
62
  8
DAIKO
 10
19.58466
 20
21.456271999999998
 30
0.0
 40
2.879718
 50
88.210121000000001
 51
104.078496
  0
ARC
  5
63
  8
DAIKO
 10
18.957916999999998
 20
24.037807000000001
 30
0.0
 40
0.2241659999999999
 50
109.208247
 51
126.221735
  0
ARC
  5
64
  8
DAIKO
 10
18.85811
 20
24.182663000000002
 30
0.0
 40
0.048595
 50
132.22146100000001
 51
167.66117600000001
  0
ARC
  5
65
  8
DAIKO
 10
19.528755
 20
-17.078561000000001
 30
0.0
 40
41.619343000000001
 50
89.799211999999983
 51
93.926959999999994
  0
ARC
  5
66
  8
DAIKO
 10
16.847569
 20
18.650117999999999
 30
0.0
 40
5.7954160000000003
 50
91.672066000000015
 51
103.35686200000001
  0
ARC
  5
67
  8
DAIKO
 10
15.542472
 20
24.063735999999999
 30
0.0
 40
0.227547
 50
98.525553000000002
 51
145.681378
  0
ARC
  5
68
  8
DAIKO
 10
15.467893999999999
 20
24.239445
 30
0.0
 40
0.122875
 50
202.700468
 51
258.42069199999997
  0
ARC
  5
69
  8
DAIKO
 10
15.850936000000001
 20
25.112921
 30
0.0
 40
1.0742259999999999
 50
247.695167
 51
266.81127199999997
  0
ARC
  5
6A
  8
DAIKO
 10
18.677630000000001
 20
45.848729999999989
 30
0.0
 40
21.998560999999999
 50
262.46043700000001
 51
270.34630499999997
  0
ARC
  5
6B
  8
DAIKO
 10
19.584033999999999
 20
24.007300999999998
 30
0.0
 40
8.7003350000000008
 50
90.826054000000013
 51
95.864270999999988
  0
ARC
  5
6C
  8
DAIKO
 10
19.576867
 20
25.828185000000001
 30
0.0
 40
6.2973460000000001
 50
91.076081000000002
 51
97.907561999999999
  0
ARC
  5
6D
  8
DAIKO
 10
18.069963999999999
 20
32.494996
 30
0.0
 40
0.1375
 50
213.29343299999999
 51
245.505608
  0
ARC
  5
6E
  8
DAIKO
 10
17.986841999999999
 20
32.443658999999997
 30
0.0
 40
0.039933
 50
143.425331
 51
217.194355
  0
ARC
  5
6F
  8
DAIKO
 10
18.066372999999999
 20
32.397199000000001
 30
0.0
 40
0.131873
 50
113.624253
 51
147.80873700000001
  0
ARC
  5
70
  8
DAIKO
 10
18.462437999999999
 20
31.530083999999999
 30
0.0
 40
1.085145
 50
100.54218400000001
 51
114.43673200000001
  0
ARC
  5
71
  8
DAIKO
 10
23.825379000000002
 20
36.921533000000011
 30
0.0
 40
7.3812300000000004
 50
215.37133
 51
221.27534
  0
ARC
  5
72
  8
DAIKO
 10
19.284618999999999
 20
32.857995000000003
 30
0.0
 40
1.289329999999999
 50
218.67462
 51
229.56951900000001
  0
ARC
  5
73
  8
DAIKO
 10
17.707442
 20
31.586545000000001
 30
0.0
 40
0.122784
 50
105.30728999999999
 51
169.869429
  0
ARC
  5
74
  8
DAIKO
 10
18.425694
 20
29.974360999999998
 30
0.0
 40
1.8864029999999989
 50
94.334006999999986
 51
113.449169
  0
ARC
  5
75
  8
DAIKO
 10
19.572202999999998
 20
22.107714000000001
 30
0.0
 40
9.8325220000000009
 50
89.403268999999995
 51
97.533286000000032
  0
ARC
  5
76
  8
DAIKO
 10
19.628558999999999
 20
197.99560399999999
 30
0.0
 40
174.93853999999999
 50
268.56717900000001
 51
269.73209900000001
  0
ARC
  5
77
  8
DAIKO
 10
17.481121000000002
 20
132.477306
 30
0.0
 40
109.38821299999999
 50
264.46378499999997
 51
268.83352000000002
  0
ARC
  5
78
  8
DAIKO
 10
9.2422769999999996
 20
48.242663999999998
 30
0.0
 40
24.751759
 50
257.67054899999999
 51
264.634817
  0
ARC
  5
79
  8
DAIKO
 10
4.7771879999999989
 20
28.388135999999999
 30
0.0
 40
4.4034199999999988
 50
250.28948600000001
 51
259.26491399999998
  0
ARC
  5
7A
  8
DAIKO
 10
3.6332989999999992
 20
25.188870000000001
 30
0.0
 40
1.005808
 50
219.41437999999999
 51
250.16740799999999
  0
ARC
  5
7B
  8
DAIKO
 10
2.9713439999999989
 20
24.638351
 30
0.0
 40
0.144948
 50
149.60089099999999
 51
217.4275430000001
  0
ARC
  5
7C
  8
DAIKO
 10
3.586265
 20
24.032867
 30
0.0
 40
1.0041539999999991
 50
121.020893
 51
137.46639200000001
  0
ARC
  5
7D
  8
DAIKO
 10
4.2521050000000002
 20
22.775345000000002
 30
0.0
 40
2.4262009999999989
 50
97.797008000000005
 51
119.191481
  0
ARC
  5
7E
  8
DAIKO
 10
10.48312
 20
-6.1309629999999986
 30
0.0
 40
31.989947999999998
 50
93.486603999999986
 51
101.833569
  0
ARC
  5
7F
  8
DAIKO
 10
17.889036999999998
 20
-94.338451000000006
 30
0.0
 40
120.50162400000001
 50
91.589875000000021
 51
94.450849000000005
  0
ARC
  5
80
  8
DAIKO
 10
19.580912999999999
 20
-144.27061499999999
 30
0.0
 40
170.461781
 50
89.968508
 51
91.692679999999996
  0
ARC
  5
81
  8
DAIKO
 10
19.673703
 20
-130.072802
 30
0.0
 40
156.606461
 50
89.999669999999995
 51
90.65625
  0
ARC
  5
82
  8
DAIKO
 10
18.552937
 20
-86.171157999999977
 30
0.0
 40
112.69655400000001
 50
90.342120000000008
 51
95.467341000000005
  0
ARC
  5
83
  8
DAIKO
 10
10.228184000000001
 20
-1.908680999999999
 30
0.0
 40
28.025438000000001
 50
94.938869999999994
 51
103.707803
  0
ARC
  5
84
  8
DAIKO
 10
3.9460089999999992
 20
23.071722000000001
 30
0.0
 40
2.2752870000000001
 50
99.078847999999994
 51
127.347601
  0
ARC
  5
85
  8
DAIKO
 10
2.7530169999999989
 20
24.598427999999998
 30
0.0
 40
0.338604
 50
123.585317
 51
189.0852899999999
  0
ARC
  5
86
  8
DAIKO
 10
3.0687739999999999
 20
24.893405999999999
 30
0.0
 40
0.7376050000000001
 50
208.190247
 51
243.621577
  0
ARC
  5
87
  8
DAIKO
 10
4.506183
 20
27.484946999999998
 30
0.0
 40
3.7004619999999999
 50
241.51025899999999
 51
262.80527899999998
  0
ARC
  5
88
  8
DAIKO
 10
10.696438000000001
 20
53.870733999999999
 30
0.0
 40
30.784766000000001
 50
257.51779599999998
 51
266.14428900000001
  0
ARC
  5
89
  8
DAIKO
 10
18.671949000000001
 20
137.886563
 30
0.0
 40
115.16986300000001
 50
264.99606
 51
270.06897300000003
  0
ARC
  5
8A
  8
DAIKO
 10
19.408563000000001
 20
33.947485
 30
0.0
 40
2.498186
 50
328.67603199999991
 51
347.07728900000001
  0
ARC
  5
8B
  8
DAIKO
 10
21.684716000000002
 20
33.25541900000001
 30
0.0
 40
0.138503
 50
14.583928999999999
 51
65.954005000000009
  0
ARC
  5
8C
  8
DAIKO
 10
20.833969
 20
31.112376000000001
 30
0.0
 40
2.4441220000000001
 50
68.212248000000002
 51
83.520106000000027
  0
ARC
  5
8D
  8
DAIKO
 10
19.741177
 20
22.198608
 30
0.0
 40
11.428293999999999
 50
85.297772999999992
 51
89.250800999999996
  0
ARC
  5
8E
  8
DAIKO
 10
19.724534999999999
 20
23.906793
 30
0.0
 40
12.644242
 50
85.332312999999999
 51
89.247433000000015
  0
ARC
  5
8F
  8
DAIKO
 10
20.965399000000001
 20
33.586688000000002
 30
0.0
 40
2.8852299999999991
 50
68.963766000000007
 51
85.622569999999996
  0
ARC
  5
90
  8
DAIKO
 10
21.870069000000001
 20
35.944443999999997
 30
0.0
 40
0.359877
 50
25.813876
 51
68.651882999999984
  0
ARC
  5
91
  8
DAIKO
 10
9.1573279999999997
 20
36.049818999999999
 30
0.0
 40
13.040073
 50
7.6066570000000011
 51
21.400521000000001
  0
ARC
  5
92
  8
DAIKO
 10
17.186706999999998
 20
40.453220999999992
 30
0.0
 40
3.920339999999999
 50
19.213532000000001
 51
46.392749000000002
  0
ARC
  5
93
  8
DAIKO
 10
19.694226
 20
81.654612000000014
 30
0.0
 40
34.508932000000001
 50
270.32606099999998
 51
272.21651400000002
  0
ARC
  5
94
  8
DAIKO
 10
19.693643000000002
 20
87.169461999999996
 30
0.0
 40
39.752074
 50
270.28389399999998
 51
271.93489
  0
ARC
  5
95
  8
DAIKO
 10
20.240814
 20
76.296772000000004
 30
0.0
 40
28.864989000000001
 50
273.07463999999999
 51
274.71677
  0
ARC
  5
96
  8
DAIKO
 10
20.162993
 20
73.664321999999999
 30
0.0
 40
26.504367999999999
 50
273.57961399999999
 51
275.276433
  0
ARC
  5
97
  8
DAIKO
 10
21.145976000000001
 20
66.720376999999999
 30
0.0
 40
19.245722000000001
 50
275.68204800000001
 51
275.757068
  0
ARC
  5
98
  8
DAIKO
 10
20.393135999999998
 20
71.107086999999993
 30
0.0
 40
23.936806000000001
 50
276.34297199999997
 51
276.562321
  0
ARC
  5
99
  8
DAIKO
 10
21.746611000000001
 20
62.180019999999992
 30
0.0
 40
14.666024
 50
276.89780200000001
 51
278.67365999999998
  0
ARC
  5
9A
  8
DAIKO
 10
21.232026000000001
 20
64.140344999999996
 30
0.0
 40
16.919739
 50
277.90474999999998
 51
279.20739099999997
  0
ARC
  5
9B
  8
DAIKO
 10
23.124279000000001
 20
54.487398999999989
 30
0.0
 40
6.8495589999999993
 50
280.710217
 51
281.34042699999998
  0
ARC
  5
9C
  8
DAIKO
 10
22.291464999999999
 20
57.954455000000003
 30
0.0
 40
10.643783000000001
 50
281.30758600000001
 51
282.18650600000001
  0
ARC
  5
9D
  8
DAIKO
 10
24.964766000000001
 20
47.903540999999997
 30
0.0
 40
0.251668
 50
268.70649600000002
 51
303.96666699999997
  0
ARC
  5
9E
  8
DAIKO
 10
24.064931999999999
 20
50.861672999999989
 30
0.0
 40
3.1007090000000002
 50
285.4669990000001
 51
290.02954599999998
  0
ARC
  5
9F
  8
DAIKO
 10
25.688404999999999
 20
48.254840999999999
 30
0.0
 40
0.2512539999999999
 50
314.81737600000002
 51
354.15242899999998
  0
ARC
  5
A0
  8
DAIKO
 10
25.616671
 20
48.200001
 30
0.0
 40
0.323007
 50
5.1941160000000002
 51
42.381842999999989
  0
ARC
  5
A1
  8
DAIKO
 10
25.420808000000001
 20
48.039985999999992
 30
0.0
 40
0.5757120000000001
 50
41.005600000000001
 51
62.395384999999997
  0
ARC
  5
A2
  8
DAIKO
 10
23.704550000000001
 20
44.557450000000003
 30
0.0
 40
4.2200600000000001
 50
68.503956999999986
 51
77.058382999999992
  0
ARC
  5
A3
  8
DAIKO
 10
21.313237000000001
 20
31.331706000000001
 30
0.0
 40
17.665572000000001
 50
80.695490000000007
 51
83.749842000000001
  0
ARC
  5
A4
  8
DAIKO
 10
21.226209999999998
 20
32.305988999999997
 30
0.0
 40
16.954695999999998
 50
80.265463999999994
 51
83.375931999999978
  0
ARC
  5
A5
  8
DAIKO
 10
23.33661
 20
43.009608999999998
 30
0.0
 40
6.0409969999999991
 50
72.613463999999993
 51
78.190283999999991
  0
ARC
  5
A6
  8
DAIKO
 10
25.158092
 20
48.802939000000002
 30
0.0
 40
0.026347
 50
123.741551
 51
184.0360269999999
  0
ARC
  5
A7
  8
DAIKO
 10
25.617761000000002
 20
48.153238999999999
 30
0.0
 40
0.8222059999999999
 50
99.686335999999983
 51
125.23055100000001
  0
ARC
  5
A8
  8
DAIKO
 10
25.501581999999999
 20
48.840895000000003
 30
0.0
 40
0.124811
 50
80.441830000000024
 51
100.227056
  0
ARC
  5
A9
  8
DAIKO
 10
25.520872000000001
 20
48.947629999999997
 30
0.0
 40
0.016407
 50
28.448121
 51
84.983805000000004
  0
ARC
  5
AA
  8
DAIKO
 10
24.472794
 20
49.145932999999992
 30
0.0
 40
0.031371
 50
26.114971000000001
 51
73.963455999999994
  0
ARC
  5
AB
  8
DAIKO
 10
24.436675000000001
 20
49.017226999999998
 30
0.0
 40
0.165049
 50
74.25569200000001
 51
93.017782999999994
  0
ARC
  5
AC
  8
DAIKO
 10
24.470897000000001
 20
48.533850000000001
 30
0.0
 40
0.6496150000000001
 50
93.787557999999976
 51
110.534409
  0
ARC
  5
AD
  8
DAIKO
 10
24.361664999999999
 20
48.760258
 30
0.0
 40
0.399933
 50
107.25550699999999
 51
129.417776
  0
ARC
  5
AE
  8
DAIKO
 10
24.148893999999999
 20
49.019288000000003
 30
0.0
 40
0.064718
 50
129.508748
 51
156.792069
  0
ARC
  5
AF
  8
DAIKO
 10
24.109593
 20
49.036664000000002
 30
0.0
 40
0.021756
 50
158.06218899999999
 51
195.26569599999999
  0
ARC
  5
B0
  8
DAIKO
 10
23.111675999999999
 20
49.274673999999997
 30
0.0
 40
0.042546
 50
18.920759
 51
65.355266999999998
  0
ARC
  5
B1
  8
DAIKO
 10
23.052060000000001
 20
49.129403000000003
 30
0.0
 40
0.199547
 50
67.190616000000006
 51
88.456519999999983
  0
ARC
  5
B2
  8
DAIKO
 10
23.046899
 20
48.754784999999991
 30
0.0
 40
0.5741890000000001
 50
88.94861800000001
 51
110.863562
  0
ARC
  5
B3
  8
DAIKO
 10
22.911826000000001
 20
49.063482
 30
0.0
 40
0.238185
 50
106.94524800000001
 51
133.57417100000001
  0
ARC
  5
B4
  8
DAIKO
 10
22.773028
 20
49.200943999999993
 30
0.0
 40
0.043314
 50
125.872989
 51
187.49193
  0
ARC
  5
B5
  8
DAIKO
 10
20.237534
 20
20.268671000000001
 30
0.0
 40
28.780911
 50
84.921396999999999
 51
87.247938999999988
  0
ARC
  5
B6
  8
DAIKO
 10
20.061820000000001
 20
21.909593999999998
 30
0.0
 40
27.415856000000002
 50
84.414815000000004
 51
86.804352000000009
  0
ARC
  5
B7
  8
DAIKO
 10
19.685117000000002
 20
8.9064779999999981
 30
0.0
 40
40.156976
 50
87.862742999999995
 51
89.706803000000008
  0
ARC
  5
B8
  8
DAIKO
 10
19.692723999999998
 20
14.763311
 30
0.0
 40
34.571821
 50
87.578881999999993
 51
89.684537000000006
  0
ARC
  5
B9
  8
DAIKO
 10
21.535657
 20
49.357044999999992
 30
0.0
 40
0.046179
 50
10.683688999999999
 51
52.284703999999998
  0
ARC
  5
BA
  8
DAIKO
 10
21.45363
 20
49.221415
 30
0.0
 40
0.20445
 50
57.358564999999999
 51
83.489643999999984
  0
ARC
  5
BB
  8
DAIKO
 10
21.415151000000002
 20
48.912824000000001
 30
0.0
 40
0.515424
 50
83.129285999999993
 51
98.664293000000015
  0
ARC
  5
BC
  8
DAIKO
 10
21.386198
 20
49.027568999999993
 30
0.0
 40
0.397789
 50
97.031099000000012
 51
115.479461
  0
ARC
  5
BD
  8
DAIKO
 10
21.264983999999998
 20
49.263615000000001
 30
0.0
 40
0.13279
 50
112.07716600000001
 51
140.47950900000001
  0
ARC
  5
BE
  8
DAIKO
 10
21.193653999999999
 20
49.319941
 30
0.0
 40
0.041968
 50
137.82784799999999
 51
184.63735700000001
  0
ARC
  5
BF
  8
DAIKO
 10
19.847861999999999
 20
49.310324999999999
 30
0.0
 40
0.04277
 50
1.899124
 51
34.593985000000004
  0
ARC
  5
C0
  8
DAIKO
 10
19.785782999999999
 20
49.254072000000001
 30
0.0
 40
0.126297
 50
39.618741
 51
69.533806000000013
  0
ARC
  5
C1
  8
DAIKO
 10
19.680816
 20
48.968853000000003
 30
0.0
 40
0.4302180000000001
 50
69.718475999999995
 51
90.827113999999995
  0
ARC
  5
C2
  8
DAIKO
 10
19.668395
 20
48.968853000000003
 30
0.0
 40
0.4302180000000001
 50
89.172886000000005
 51
110.281524
  0
ARC
  5
C3
  8
DAIKO
 10
19.563427999999998
 20
49.254072000000001
 30
0.0
 40
0.126297
 50
110.466194
 51
140.381259
  0
ARC
  5
C4
  8
DAIKO
 10
19.501349000000001
 20
49.310324999999999
 30
0.0
 40
0.04277
 50
145.406015
 51
178.100876
  0
ARC
  5
C5
  8
DAIKO
 10
18.155557000000002
 20
49.319941
 30
0.0
 40
0.041968
 50
355.36264299999999
 51
42.172151999999997
  0
ARC
  5
C6
  8
DAIKO
 10
18.084226999999998
 20
49.263615000000001
 30
0.0
 40
0.13279
 50
39.520491
 51
67.922833999999995
  0
ARC
  5
C7
  8
DAIKO
 10
17.963014000000001
 20
49.027568999999993
 30
0.0
 40
0.397789
 50
64.520538999999999
 51
82.968901000000017
  0
ARC
  5
C8
  8
DAIKO
 10
17.934059999999999
 20
48.912824000000001
 30
0.0
 40
0.515424
 50
81.335706999999985
 51
96.870714000000007
  0
ARC
  5
C9
  8
DAIKO
 10
17.895581
 20
49.221415
 30
0.0
 40
0.20445
 50
96.510356000000002
 51
122.641435
  0
ARC
  5
CA
  8
DAIKO
 10
17.813554
 20
49.357044999999992
 30
0.0
 40
0.046179
 50
127.715296
 51
169.31631100000001
  0
ARC
  5
CB
  8
DAIKO
 10
19.656488
 20
14.763311
 30
0.0
 40
34.571821
 50
90.31546299999998
 51
92.421118000000007
  0
ARC
  5
CC
  8
DAIKO
 10
19.664095
 20
8.9064779999999981
 30
0.0
 40
40.156976
 50
90.293197000000006
 51
92.137256999999991
  0
ARC
  5
CD
  8
DAIKO
 10
19.287391
 20
21.909593999999998
 30
0.0
 40
27.415856000000002
 50
93.195648000000006
 51
95.585184999999996
  0
ARC
  5
CE
  8
DAIKO
 10
19.111677
 20
20.268671000000001
 30
0.0
 40
28.780911
 50
92.752060999999983
 51
95.078603000000001
  0
ARC
  5
CF
  8
DAIKO
 10
16.576183
 20
49.200943999999993
 30
0.0
 40
0.043314
 50
352.50806999999998
 51
54.127010999999989
  0
ARC
  5
D0
  8
DAIKO
 10
16.437386
 20
49.063482
 30
0.0
 40
0.238185
 50
46.425828999999993
 51
73.054751999999993
  0
ARC
  5
D1
  8
DAIKO
 10
16.302313000000002
 20
48.754784999999991
 30
0.0
 40
0.5741890000000001
 50
69.136437999999998
 51
91.051381999999975
  0
ARC
  5
D2
  8
DAIKO
 10
16.297152000000001
 20
49.129403000000003
 30
0.0
 40
0.199547
 50
91.543480000000002
 51
112.80938399999999
  0
ARC
  5
D3
  8
DAIKO
 10
16.237535000000001
 20
49.274673999999997
 30
0.0
 40
0.042546
 50
114.644733
 51
161.079241
  0
ARC
  5
D4
  8
DAIKO
 10
15.239618999999999
 20
49.036664000000002
 30
0.0
 40
0.021756
 50
344.73430400000001
 51
21.937811
  0
ARC
  5
D5
  8
DAIKO
 10
15.200317999999999
 20
49.019288000000003
 30
0.0
 40
0.064718
 50
23.207930999999991
 51
50.491251999999989
  0
ARC
  5
D6
  8
DAIKO
 10
14.987546
 20
48.760258
 30
0.0
 40
0.399933
 50
50.582223999999997
 51
72.744493000000006
  0
ARC
  5
D7
  8
DAIKO
 10
14.878314
 20
48.533850000000001
 30
0.0
 40
0.6496150000000001
 50
69.465591000000003
 51
86.21244200000001
  0
ARC
  5
D8
  8
DAIKO
 10
14.912537
 20
49.017226999999998
 30
0.0
 40
0.165049
 50
86.982217000000006
 51
105.744308
  0
ARC
  5
D9
  8
DAIKO
 10
14.876417999999999
 20
49.145932999999992
 30
0.0
 40
0.031371
 50
106.03654399999991
 51
153.885029
  0
ARC
  5
DA
  8
DAIKO
 10
13.828339
 20
48.947629999999997
 30
0.0
 40
0.016407
 50
95.016194999999996
 51
151.55187900000001
  0
ARC
  5
DB
  8
DAIKO
 10
13.847630000000001
 20
48.840895000000003
 30
0.0
 40
0.124811
 50
79.772943999999995
 51
99.558170000000004
  0
ARC
  5
DC
  8
DAIKO
 10
13.731450000000001
 20
48.153238999999999
 30
0.0
 40
0.8222059999999999
 50
54.769449000000002
 51
80.313664000000017
  0
ARC
  5
DD
  8
DAIKO
 10
14.19112
 20
48.802939000000002
 30
0.0
 40
0.026347
 50
355.96397300000001
 51
56.258448999999999
  0
ARC
  5
DE
  8
DAIKO
 10
16.012601
 20
43.009608999999998
 30
0.0
 40
6.0409969999999991
 50
101.80971599999999
 51
107.38653600000001
  0
ARC
  5
DF
  8
DAIKO
 10
18.123000999999999
 20
32.305988999999997
 30
0.0
 40
16.954695999999998
 50
96.624068000000022
 51
99.734536000000006
  0
ARC
  5
E0
  8
DAIKO
 10
18.035975000000001
 20
31.331706000000001
 30
0.0
 40
17.665572000000001
 50
96.250158000000013
 51
99.304509999999993
  0
ARC
  5
E1
  8
DAIKO
 10
15.644660999999999
 20
44.557450000000003
 30
0.0
 40
4.2200600000000001
 50
102.94161699999999
 51
111.496043
  0
ARC
  5
E2
  8
DAIKO
 10
13.928402999999999
 20
48.039985999999992
 30
0.0
 40
0.5757120000000001
 50
117.604615
 51
138.99440000000001
  0
ARC
  5
E3
  8
DAIKO
 10
13.73254
 20
48.200001
 30
0.0
 40
0.323007
 50
137.618157
 51
174.80588399999999
  0
ARC
  5
E4
  8
DAIKO
 10
13.660805999999999
 20
48.254840999999999
 30
0.0
 40
0.2512539999999999
 50
185.84757099999999
 51
225.182624
  0
ARC
  5
E5
  8
DAIKO
 10
15.284280000000001
 20
50.861672999999989
 30
0.0
 40
3.1007090000000002
 50
249.9704540000001
 51
254.53300100000001
  0
ARC
  5
E6
  8
DAIKO
 10
14.384446000000001
 20
47.903540999999997
 30
0.0
 40
0.251668
 50
236.033333
 51
271.29350399999998
  0
ARC
  5
E7
  8
DAIKO
 10
17.057746999999999
 20
57.954455000000003
 30
0.0
 40
10.643783000000001
 50
257.81349399999999
 51
258.69241399999999
  0
ARC
  5
E8
  8
DAIKO
 10
16.224933
 20
54.487398999999989
 30
0.0
 40
6.8495589999999993
 50
258.65957300000002
 51
259.289783
  0
ARC
  5
E9
  8
DAIKO
 10
18.117184999999999
 20
64.140344999999996
 30
0.0
 40
16.919739
 50
260.79260900000003
 51
262.09525000000002
  0
ARC
  5
EA
  8
DAIKO
 10
17.602601
 20
62.180019999999992
 30
0.0
 40
14.666024
 50
261.32634000000002
 51
263.10219799999999
  0
ARC
  5
EB
  8
DAIKO
 10
18.956074999999998
 20
71.107086999999993
 30
0.0
 40
23.936806000000001
 50
263.437679
 51
263.65702800000003
  0
ARC
  5
EC
  8
DAIKO
 10
18.203236
 20
66.720376999999999
 30
0.0
 40
19.245722000000001
 50
264.242932
 51
264.31795199999999
  0
ARC
  5
ED
  8
DAIKO
 10
19.186218
 20
73.664321999999999
 30
0.0
 40
26.504367999999999
 50
264.723567
 51
266.42038600000001
  0
ARC
  5
EE
  8
DAIKO
 10
19.108398000000001
 20
76.296772000000004
 30
0.0
 40
28.864989000000001
 50
265.28323
 51
266.92536000000001
  0
ARC
  5
EF
  8
DAIKO
 10
19.655567999999999
 20
87.169461999999996
 30
0.0
 40
39.752074
 50
268.06511
 51
269.71610600000002
  0
ARC
  5
F0
  8
DAIKO
 10
19.654986000000001
 20
81.654612000000014
 30
0.0
 40
34.508932000000001
 50
267.78348599999998
 51
269.67393900000008
  0
ARC
  5
F1
  8
DAIKO
 10
22.162503999999998
 20
40.453220999999992
 30
0.0
 40
3.920339999999999
 50
133.60725099999999
 51
160.78646800000001
  0
ARC
  5
F2
  8
DAIKO
 10
30.191883000000001
 20
36.049818999999999
 30
0.0
 40
13.040073
 50
158.599479
 51
172.39334299999999
  0
ARC
  5
F3
  8
DAIKO
 10
17.479143000000001
 20
35.944443999999997
 30
0.0
 40
0.359877
 50
111.348117
 51
154.18612400000001
  0
ARC
  5
F4
  8
DAIKO
 10
18.383811999999999
 20
33.586688000000002
 30
0.0
 40
2.8852299999999991
 50
94.377430000000004
 51
111.03623399999999
  0
ARC
  5
F5
  8
DAIKO
 10
19.624676999999998
 20
23.906793
 30
0.0
 40
12.644242
 50
90.752566999999999
 51
94.667687000000015
  0
ARC
  5
F6
  8
DAIKO
 10
19.608034
 20
22.198608
 30
0.0
 40
11.428293999999999
 50
90.749199000000004
 51
94.702226999999993
  0
ARC
  5
F7
  8
DAIKO
 10
18.515242000000001
 20
31.112376000000001
 30
0.0
 40
2.4441220000000001
 50
96.479894000000002
 51
111.787752
  0
ARC
  5
F8
  8
DAIKO
 10
17.664494999999999
 20
33.25541900000001
 30
0.0
 40
0.138503
 50
114.045995
 51
165.41607099999999
  0
ARC
  5
F9
  8
DAIKO
 10
19.940649000000001
 20
33.947485
 30
0.0
 40
2.498186
 50
192.92271099999999
 51
211.32396800000001
  0
LINE
  5
FA
  8
DAIKO
 10
15.223763999999999
 20
26.469280000000001
 30
0.0
 11
14.432164999999999
 21
38.946387000000001
 31
0.0
  0
LINE
  5
FB
  8
DAIKO
 10
16.431173000000001
 20
26.499704000000001
 30
0.0
 11
16.111599999999999
 21
30.339635000000001
 31
0.0
  0
LINE
  5
FC
  8
DAIKO
 10
16.614000999999998
 20
26.503464000000001
 30
0.0
 11
16.229872
 21
31.415699
 31
0.0
  0
LINE
  5
FD
  8
DAIKO
 10
17.072866000000001
 20
26.172363000000001
 30
0.0
 11
17.188542000000002
 21
24.693093000000001
 31
0.0
  0
LINE
  5
FE
  8
DAIKO
 10
17.466224
 20
26.177658999999998
 30
0.0
 11
17.546320000000001
 21
24.711309
 31
0.0
  0
LINE
  5
FF
  8
DAIKO
 10
17.586573000000001
 20
26.179102
 30
0.0
 11
17.586573000000001
 21
24.696033
 31
0.0
  0
LINE
  5
100
  8
DAIKO
 10
17.880016000000001
 20
26.523387
 30
0.0
 11
17.154620999999999
 21
39.829244000000003
 31
0.0
  0
LINE
  5
101
  8
DAIKO
 10
18.421323000000001
 20
26.528655000000001
 30
0.0
 11
17.900283999999999
 21
46.613436
 31
0.0
  0
LINE
  5
102
  8
DAIKO
 10
18.862293000000001
 20
26.189326000000001
 30
0.0
 11
18.899448
 21
24.750872000000001
 31
0.0
  0
LINE
  5
103
  8
DAIKO
 10
20.495757000000001
 20
26.531510999999998
 30
0.0
 11
21.077133
 21
49.039333999999997
 31
0.0
  0
LINE
  5
104
  8
DAIKO
 10
20.919021999999998
 20
26.186882000000001
 30
0.0
 11
20.881556
 21
24.742671999999999
 31
0.0
  0
LINE
  5
105
  8
DAIKO
 10
21.450607999999999
 20
26.182454
 30
0.0
 11
21.371344000000001
 21
24.728511999999998
 31
0.0
  0
LINE
  5
106
  8
DAIKO
 10
21.762637999999999
 20
26.519718999999998
 30
0.0
 11
21.762637999999999
 21
31.608142000000001
 31
0.0
  0
LINE
  5
107
  8
DAIKO
 10
21.901565999999999
 20
26.517783000000001
 30
0.0
 11
22.484566999999998
 21
37.190984
 31
0.0
  0
LINE
  5
108
  8
DAIKO
 10
22.302862999999999
 20
26.511468000000001
 30
0.0
 11
22.866354999999999
 21
33.717402
 31
0.0
  0
LINE
  5
109
  8
DAIKO
 10
22.708784000000001
 20
26.165513000000001
 30
0.0
 11
22.591449000000001
 21
24.665035
 31
0.0
  0
LINE
  5
10A
  8
DAIKO
 10
22.889959999999999
 20
26.162324000000002
 30
0.0
 11
22.764232
 21
24.651595
 31
0.0
  0
LINE
  5
10B
  8
DAIKO
 10
23.303053999999999
 20
26.491057999999999
 30
0.0
 11
23.458984999999998
 21
28.325534000000001
 31
0.0
  0
LINE
  5
10C
  8
DAIKO
 10
24.104306999999999
 20
26.136067000000001
 30
0.0
 11
23.994672999999999
 21
24.408028999999999
 31
0.0
  0
LINE
  5
10D
  8
DAIKO
 10
6.9410780000000001
 20
12.070698999999999
 30
0.0
 11
20.538619000000001
 21
15.714149000000001
 31
0.0
  0
LINE
  5
10E
  8
DAIKO
 10
6.3541530000000002
 20
14.024710000000001
 30
0.0
 11
18.810592
 21
17.362403
 31
0.0
  0
LINE
  5
10F
  8
DAIKO
 10
18.810592
 20
24.192025000000001
 30
0.0
 11
18.810592
 21
17.362403
 31
0.0
  0
LINE
  5
110
  8
DAIKO
 10
20.538619000000001
 20
24.192025000000001
 30
0.0
 11
20.538619000000001
 21
15.714149000000001
 31
0.0
  0
LINE
  5
111
  8
DAIKO
 10
25.887062
 20
48.402104000000001
 30
0.0
 11
36.256680000000003
 21
25.174268000000001
 31
0.0
  0
LINE
  5
112
  8
DAIKO
 10
36.848059999999997
 20
24.909326
 30
0.0
 11
26.281544
 21
48.578212000000001
 31
0.0
  0
LINE
  5
113
  8
DAIKO
 10
25.131810000000002
 20
48.80108400000001
 30
0.0
 11
33.800377000000012
 21
25.725695000000002
 31
0.0
  0
LINE
  5
114
  8
DAIKO
 10
34.294119999999999
 20
25.64396
 30
0.0
 11
25.535298000000001
 21
48.955444999999997
 31
0.0
  0
LINE
  5
115
  8
DAIKO
 10
31.066562000000001
 20
26.059757999999999
 30
0.0
 11
24.088604
 21
49.030935999999997
 31
0.0
  0
LINE
  5
116
  8
DAIKO
 10
31.533816999999999
 20
26.012702000000001
 30
0.0
 11
24.500962000000001
 21
49.159742000000001
 31
0.0
  0
LINE
  5
117
  8
DAIKO
 10
28.059508999999998
 20
26.293852000000001
 30
0.0
 11
23.151923
 21
49.288470000000011
 31
0.0
  0
LINE
  5
118
  8
DAIKO
 10
27.611222000000001
 20
26.320488000000001
 30
0.0
 11
22.730084000000002
 21
49.195295999999999
 31
0.0
  0
LINE
  5
119
  8
DAIKO
 10
23.661598000000001
 20
26.482118
 30
0.0
 11
21.151823
 21
49.316547999999997
 31
0.0
  0
LINE
  5
11A
  8
DAIKO
 10
21.581035
 20
49.365605999999993
 30
0.0
 11
24.09779
 21
26.470085999999998
 31
0.0
  0
LINE
  5
11B
  8
DAIKO
 10
26.281544
 20
48.578212000000001
 30
0.0
 11
25.887062
 21
48.402104000000001
 31
0.0
  0
LINE
  5
11C
  8
DAIKO
 10
36.783503000000003
 20
24.880506
 30
0.0
 11
36.848059999999997
 21
24.909326
 31
0.0
  0
LINE
  5
11D
  8
DAIKO
 10
23.994672999999999
 20
24.408028999999999
 30
0.0
 11
23.994672999999999
 21
24.192025000000001
 31
0.0
  0
LINE
  5
11E
  8
DAIKO
 10
21.762637999999999
 20
24.696033
 30
0.0
 11
21.762637999999999
 21
26.179102
 31
0.0
  0
LINE
  5
11F
  8
DAIKO
 10
20.449763000000001
 20
24.750872000000001
 30
0.0
 11
20.486919
 21
26.189326000000001
 31
0.0
  0
LINE
  5
120
  8
DAIKO
 10
21.448927000000001
 20
46.613436
 30
0.0
 11
20.927887999999999
 21
26.528655000000001
 31
0.0
  0
LINE
  5
121
  8
DAIKO
 10
22.194590999999999
 20
39.829244000000003
 30
0.0
 11
21.469194999999999
 21
26.523387
 31
0.0
  0
LINE
  5
122
  8
DAIKO
 10
22.628885
 20
39.833067999999997
 30
0.0
 11
23.056674999999998
 21
47.664771000000002
 31
0.0
  0
LINE
  5
123
  8
DAIKO
 10
23.834053000000001
 20
46.092334999999999
 30
0.0
 11
24.044657000000001
 21
48.785540999999988
 31
0.0
  0
LINE
  5
124
  8
DAIKO
 10
23.119339
 20
31.415699
 30
0.0
 11
22.735211
 21
26.503464000000001
 31
0.0
  0
LINE
  5
125
  8
DAIKO
 10
23.237611000000001
 20
30.339635000000001
 30
0.0
 11
22.918037999999999
 21
26.499704000000001
 31
0.0
  0
LINE
  5
126
  8
DAIKO
 10
25.070548000000009
 20
47.285080000000001
 30
0.0
 11
25.175031000000001
 21
48.514296999999999
 31
0.0
  0
LINE
  5
127
  8
DAIKO
 10
24.690452000000001
 20
42.07965699999999
 30
0.0
 11
24.87735
 21
45.012169999999998
 31
0.0
  0
LINE
  5
128
  8
DAIKO
 10
24.917045999999999
 20
38.946387000000001
 30
0.0
 11
24.125447999999999
 21
26.469280000000001
 31
0.0
  0
LINE
  5
129
  8
DAIKO
 10
23.979171999999998
 20
24.165130000000001
 30
0.0
 11
24.094961999999999
 21
23.111761999999999
 31
0.0
  0
LINE
  5
12A
  8
DAIKO
 10
23.661228000000001
 20
23.101431999999999
 30
0.0
 11
23.558029000000001
 21
24.040358000000001
 31
0.0
  0
LINE
  5
12B
  8
DAIKO
 10
26.946569
 20
26.356397000000001
 30
0.0
 11
24.766476000000001
 21
36.573112999999999
 31
0.0
  0
LINE
  5
12C
  8
DAIKO
 10
27.394112
 20
26.332688000000001
 30
0.0
 11
24.867781000000001
 21
38.169874
 31
0.0
  0
LINE
  5
12D
  8
DAIKO
 10
30.257237
 20
26.133973999999998
 30
0.0
 11
25.167247
 21
42.890031
 31
0.0
  0
LINE
  5
12E
  8
DAIKO
 10
30.722649000000001
 20
26.092423
 30
0.0
 11
25.245277999999999
 21
44.119942999999992
 31
0.0
  0
LINE
  5
12F
  8
DAIKO
 10
33.129368999999997
 20
25.567861000000001
 30
0.0
 11
33.800377000000012
 21
23.781663999999999
 31
0.0
  0
LINE
  5
130
  8
DAIKO
 10
33.517194000000003
 20
25.767707999999999
 30
0.0
 11
25.444120999999999
 21
47.254080999999999
 31
0.0
  0
LINE
  5
131
  8
DAIKO
 10
34.242750999999998
 20
23.836649999999999
 30
0.0
 11
33.615408000000002
 21
25.506314
 31
0.0
  0
LINE
  5
132
  8
DAIKO
 10
25.491562999999999
 20
45.89940399999999
 30
0.0
 11
33.028638999999998
 21
25.835999999999999
 31
0.0
  0
LINE
  5
133
  8
DAIKO
 10
31.066562000000001
 20
23.469705000000001
 30
0.0
 11
30.347539999999999
 21
25.8367
 31
0.0
  0
LINE
  5
134
  8
DAIKO
 10
31.507691999999999
 20
23.508631000000001
 30
0.0
 11
30.811565999999999
 21
25.799772999999998
 31
0.0
  0
LINE
  5
135
  8
DAIKO
 10
28.059508999999998
 20
23.214950999999999
 30
0.0
 11
27.462167000000001
 21
26.013812999999999
 31
0.0
  0
LINE
  5
136
  8
DAIKO
 10
27.611222000000001
 20
23.241586999999999
 30
0.0
 11
27.015215000000001
 21
26.034697000000001
 31
0.0
  0
LINE
  5
137
  8
DAIKO
 10
23.573675000000001
 20
24.556996999999999
 30
0.0
 11
23.674968
 21
26.146322000000001
 31
0.0
  0
LINE
  5
138
  8
DAIKO
 10
23.14367
 20
24.615949000000001
 30
0.0
 11
23.274483
 21
26.154928000000002
 31
0.0
  0
LINE
  5
139
  8
DAIKO
 10
24.224139999999998
 20
42.193600000000004
 30
0.0
 11
23.424969000000001
 21
32.590898000000003
 31
0.0
  0
LINE
  5
13A
  8
DAIKO
 10
24.03241400000001
 20
43.092101999999997
 30
0.0
 11
23.300080999999999
 21
33.727032999999999
 31
0.0
  0
LINE
  5
13B
  8
DAIKO
 10
22.160668999999999
 20
24.693093000000001
 30
0.0
 11
22.276344999999999
 21
26.172363000000001
 31
0.0
  0
LINE
  5
13C
  8
DAIKO
 10
21.802890999999999
 20
24.711309
 30
0.0
 11
21.882987
 21
26.177658999999998
 31
0.0
  0
LINE
  5
13D
  8
DAIKO
 10
22.691541999999998
 20
48.944775
 30
0.0
 11
22.338712000000001
 21
42.47284299999999
 31
0.0
  0
LINE
  5
13E
  8
DAIKO
 10
23.047086
 20
36.028595000000003
 30
0.0
 11
23.715557
 21
44.577007999999999
 31
0.0
  0
LINE
  5
13F
  8
DAIKO
 10
24.413247999999999
 20
47.962220000000002
 30
0.0
 11
24.150925000000001
 21
44.607624000000001
 31
0.0
  0
LINE
  5
140
  8
DAIKO
 10
24.641649999999998
 20
47.210328999999987
 30
0.0
 11
24.348140999999998
 21
43.683564999999987
 31
0.0
  0
LINE
  5
141
  8
DAIKO
 10
25.303180999999999
 20
45.032595999999998
 30
0.0
 11
25.018357999999999
 21
40.543244999999992
 31
0.0
  0
LINE
  5
142
  8
DAIKO
 10
23.843208000000001
 20
28.78607800000001
 30
0.0
 11
24.588798000000001
 21
40.484678000000002
 31
0.0
  0
LINE
  5
143
  8
DAIKO
 10
23.648609
 20
30.556398000000002
 30
0.0
 11
24.519942
 21
40.807365999999988
 31
0.0
  0
LINE
  5
144
  8
DAIKO
 10
25.482963999999999
 20
47.866325000000003
 30
0.0
 11
25.381215999999998
 21
46.262585999999992
 31
0.0
  0
LINE
  5
145
  8
DAIKO
 10
24.645849999999999
 20
42.288640000000001
 30
0.0
 11
24.971810000000001
 21
46.123457000000002
 31
0.0
  0
LINE
  5
146
  8
DAIKO
 10
24.760877000000001
 20
48.642932999999992
 30
0.0
 11
24.738754
 21
48.377105
 31
0.0
  0
LINE
  5
147
  8
DAIKO
 10
14.610458
 20
48.377105
 30
0.0
 11
14.588335000000001
 21
48.642932999999992
 31
0.0
  0
LINE
  5
148
  8
DAIKO
 10
14.377402
 20
46.123457000000002
 30
0.0
 11
14.703360999999999
 21
42.288640000000001
 31
0.0
  0
LINE
  5
149
  8
DAIKO
 10
13.967995
 20
46.262585999999992
 30
0.0
 11
13.866247
 21
47.866325000000003
 31
0.0
  0
LINE
  5
14A
  8
DAIKO
 10
14.829269999999999
 20
40.807365999999988
 30
0.0
 11
15.700602999999999
 21
30.556398000000002
 31
0.0
  0
LINE
  5
14B
  8
DAIKO
 10
14.760413
 20
40.484678000000002
 30
0.0
 11
15.506003
 21
28.78607800000001
 31
0.0
  0
LINE
  5
14C
  8
DAIKO
 10
14.330854
 20
40.543244999999992
 30
0.0
 11
14.046030999999999
 21
45.032595999999998
 31
0.0
  0
LINE
  5
14D
  8
DAIKO
 10
15.001071
 20
43.683564999999987
 30
0.0
 11
14.707561
 21
47.210328999999987
 31
0.0
  0
LINE
  5
14E
  8
DAIKO
 10
15.198287000000001
 20
44.607624000000001
 30
0.0
 11
14.935962999999999
 21
47.962220000000002
 31
0.0
  0
LINE
  5
14F
  8
DAIKO
 10
15.633654
 20
44.577007999999999
 30
0.0
 11
16.302126000000001
 21
36.028595000000003
 31
0.0
  0
LINE
  5
150
  8
DAIKO
 10
17.0105
 20
42.47284299999999
 30
0.0
 11
16.657668999999999
 21
48.944775
 31
0.0
  0
LINE
  5
151
  8
DAIKO
 10
16.864644999999999
 20
37.190984
 30
0.0
 11
17.447645999999999
 21
26.517783000000001
 31
0.0
  0
LINE
  5
152
  8
DAIKO
 10
16.482856999999999
 20
33.717402
 30
0.0
 11
17.046347999999998
 21
26.511468000000001
 31
0.0
  0
LINE
  5
153
  8
DAIKO
 10
16.049129999999991
 20
33.727032999999999
 30
0.0
 11
15.316798
 21
43.092101999999997
 31
0.0
  0
LINE
  5
154
  8
DAIKO
 10
15.924242
 20
32.590898000000003
 30
0.0
 11
15.125071
 21
42.193600000000004
 31
0.0
  0
LINE
  5
155
  8
DAIKO
 10
15.890226
 20
28.325534000000001
 30
0.0
 11
16.046157000000001
 21
26.491057999999999
 31
0.0
  0
LINE
  5
156
  8
DAIKO
 10
15.674243000000001
 20
26.146322000000001
 30
0.0
 11
15.775536000000001
 21
24.556996999999999
 31
0.0
  0
LINE
  5
157
  8
DAIKO
 10
12.333996000000001
 20
26.034697000000001
 30
0.0
 11
11.737989000000001
 21
23.241586999999999
 31
0.0
  0
LINE
  5
158
  8
DAIKO
 10
11.887043999999999
 20
26.013812999999999
 30
0.0
 11
11.289702
 21
23.214950999999999
 31
0.0
  0
LINE
  5
159
  8
DAIKO
 10
8.5376460000000005
 20
25.799772999999998
 30
0.0
 11
7.841518999999999
 21
23.508631000000001
 31
0.0
  0
LINE
  5
15A
  8
DAIKO
 10
9.0016709999999982
 20
25.8367
 30
0.0
 11
8.282649000000001
 21
23.469705000000001
 31
0.0
  0
LINE
  5
15B
  8
DAIKO
 10
6.3205720000000003
 20
25.835999999999999
 30
0.0
 11
13.857647999999999
 21
45.89940399999999
 31
0.0
  0
LINE
  5
15C
  8
DAIKO
 10
5.7338040000000001
 20
25.506314
 30
0.0
 11
5.1064610000000004
 21
23.836649999999999
 31
0.0
  0
LINE
  5
15D
  8
DAIKO
 10
13.905091000000001
 20
47.254080999999999
 30
0.0
 11
5.8320169999999987
 21
25.767707999999999
 31
0.0
  0
LINE
  5
15E
  8
DAIKO
 10
5.5488349999999986
 20
23.781663999999999
 30
0.0
 11
6.219841999999999
 21
25.567861000000001
 31
0.0
  0
LINE
  5
15F
  8
DAIKO
 10
14.103933
 20
44.119942999999992
 30
0.0
 11
8.6265630000000009
 21
26.092423
 31
0.0
  0
LINE
  5
160
  8
DAIKO
 10
14.181964000000001
 20
42.890031
 30
0.0
 11
9.0919740000000004
 21
26.133973999999998
 31
0.0
  0
LINE
  5
161
  8
DAIKO
 10
14.48143
 20
38.169874
 30
0.0
 11
11.9551
 21
26.332688000000001
 31
0.0
  0
LINE
  5
162
  8
DAIKO
 10
14.582735
 20
36.573112999999999
 30
0.0
 11
12.402642
 21
26.356397000000001
 31
0.0
  0
LINE
  5
163
  8
DAIKO
 10
15.791181999999999
 20
24.040358000000001
 30
0.0
 11
15.687982999999999
 21
23.101431999999999
 31
0.0
  0
LINE
  5
164
  8
DAIKO
 10
15.254250000000001
 20
23.111761999999999
 30
0.0
 11
15.370039
 21
24.165130000000001
 31
0.0
  0
LINE
  5
165
  8
DAIKO
 10
19.890609000000001
 20
24.750990000000002
 30
0.0
 11
19.890609000000001
 21
26.191013000000002
 31
0.0
  0
LINE
  5
166
  8
DAIKO
 10
15.354538
 20
24.408028999999999
 30
0.0
 11
15.244904
 21
26.136067000000001
 31
0.0
  0
LINE
  5
167
  8
DAIKO
 10
14.471861000000001
 20
45.012169999999998
 30
0.0
 11
14.658759999999999
 21
42.07965699999999
 31
0.0
  0
LINE
  5
168
  8
DAIKO
 10
14.17418
 20
48.514296999999999
 30
0.0
 11
14.278663999999999
 21
47.285080000000001
 31
0.0
  0
LINE
  5
169
  8
DAIKO
 10
16.584979000000001
 20
24.651595
 30
0.0
 11
16.459250999999998
 21
26.162324000000002
 31
0.0
  0
LINE
  5
16A
  8
DAIKO
 10
16.757763000000001
 20
24.665035
 30
0.0
 11
16.640428
 21
26.165513000000001
 31
0.0
  0
LINE
  5
16B
  8
DAIKO
 10
15.304554
 20
48.785540999999988
 30
0.0
 11
15.515158
 21
46.092334999999999
 31
0.0
  0
LINE
  5
16C
  8
DAIKO
 10
16.292535999999998
 20
47.664771000000002
 30
0.0
 11
16.720326
 21
39.833067999999997
 31
0.0
  0
LINE
  5
16D
  8
DAIKO
 10
17.977868000000001
 20
24.728511999999998
 30
0.0
 11
17.898603000000001
 21
26.182454
 31
0.0
  0
LINE
  5
16E
  8
DAIKO
 10
18.467655000000001
 20
24.742671999999999
 30
0.0
 11
18.43019
 21
26.186882000000001
 31
0.0
  0
LINE
  5
16F
  8
DAIKO
 10
18.272078
 20
49.039333999999997
 30
0.0
 11
18.853453999999999
 21
26.531510999999998
 31
0.0
  0
LINE
  5
170
  8
DAIKO
 10
19.458601999999999
 20
26.191013000000002
 30
0.0
 11
19.458601999999999
 21
24.750990000000002
 31
0.0
  0
LINE
  5
171
  8
DAIKO
 10
17.586573000000001
 20
31.608142000000001
 30
0.0
 11
17.586573000000001
 21
26.519718999999998
 31
0.0
  0
LINE
  5
172
  8
DAIKO
 10
15.354538
 20
24.192025000000001
 30
0.0
 11
15.354538
 21
24.408028999999999
 31
0.0
  0
LINE
  5
173
  8
DAIKO
 10
19.890609000000001
 20
49.311743
 30
0.0
 11
19.890609000000001
 21
26.53351
 31
0.0
  0
LINE
  5
174
  8
DAIKO
 10
2.5011519999999998
 20
24.909326
 30
0.0
 11
2.5657079999999999
 21
24.880506
 31
0.0
  0
LINE
  5
175
  8
DAIKO
 10
13.462149
 20
48.402104000000001
 30
0.0
 11
13.067667999999999
 21
48.578212000000001
 31
0.0
  0
LINE
  5
176
  8
DAIKO
 10
19.458601999999999
 20
26.53351
 30
0.0
 11
19.458601999999999
 21
49.311743
 31
0.0
  0
LINE
  5
177
  8
DAIKO
 10
15.251421000000001
 20
26.470085999999998
 30
0.0
 11
17.768176
 21
49.365605999999993
 31
0.0
  0
LINE
  5
178
  8
DAIKO
 10
18.197388
 20
49.316547999999997
 30
0.0
 11
15.687613000000001
 21
26.482118
 31
0.0
  0
LINE
  5
179
  8
DAIKO
 10
16.619126999999999
 20
49.195295999999999
 30
0.0
 11
11.737989000000001
 21
26.320488000000001
 31
0.0
  0
LINE
  5
17A
  8
DAIKO
 10
16.197288
 20
49.288470000000011
 30
0.0
 11
11.289702
 21
26.293852000000001
 31
0.0
  0
LINE
  5
17B
  8
DAIKO
 10
14.848248999999999
 20
49.159742000000001
 30
0.0
 11
7.8153949999999988
 21
26.012702000000001
 31
0.0
  0
LINE
  5
17C
  8
DAIKO
 10
15.260607
 20
49.030935999999997
 30
0.0
 11
8.282649000000001
 21
26.059757999999999
 31
0.0
  0
LINE
  5
17D
  8
DAIKO
 10
13.813914
 20
48.955444999999997
 30
0.0
 11
5.055091
 21
25.64396
 31
0.0
  0
LINE
  5
17E
  8
DAIKO
 10
5.5488349999999986
 20
25.725695000000002
 30
0.0
 11
14.217402
 21
48.80108400000001
 31
0.0
  0
LINE
  5
17F
  8
DAIKO
 10
13.067667999999999
 20
48.578212000000001
 30
0.0
 11
2.5011519999999998
 21
24.909326
 31
0.0
  0
LINE
  5
180
  8
DAIKO
 10
3.0925319999999989
 20
25.174268000000001
 30
0.0
 11
13.462149
 21
48.402104000000001
 31
0.0
  0
LINE
  5
181
  8
DAIKO
 10
1.658906
 20
1.6959049999999991
 30
0.0
 11
1.658906
 21
20.508811000000001
 31
0.0
  0
LINE
  5
182
  8
DAIKO
 10
1.658906
 20
3.0840450000000001
 30
0.0
 11
0.0
 21
2.6395430000000002
 31
0.0
  0
LINE
  5
183
  8
DAIKO
 10
1.658906
 20
2.3470330000000001
 30
0.0
 11
0.0
 21
2.6395430000000002
 31
0.0
  0
LINE
  5
184
  8
DAIKO
 10
0.0
 20
2.6395430000000002
 30
0.0
 11
0.0
 21
18.096374999999998
 31
0.0
  0
LINE
  5
185
  8
DAIKO
 10
0.0
 20
18.096374999999998
 30
0.0
 11
1.658906
 21
18.540876999999998
 31
0.0
  0
LINE
  5
186
  8
DAIKO
 10
11.276861
 20
0.0
 30
0.0
 11
1.658906
 21
1.6959049999999991
 31
0.0
  0
LINE
  5
187
  8
DAIKO
 10
11.392061999999999
 20
18.843774
 30
0.0
 11
1.774108
 21
20.539679
 31
0.0
  0
LINE
  5
188
  8
DAIKO
 10
1.774108
 20
1.726772999999999
 30
0.0
 11
1.774108
 21
20.539679
 31
0.0
  0
LINE
  5
189
  8
DAIKO
 10
11.392061999999999
 20
0.030868
 30
0.0
 11
11.392061999999999
 21
13.263337
 31
0.0
  0
LINE
  5
18A
  8
DAIKO
 10
11.392061999999999
 20
0.030868
 30
0.0
 11
1.774108
 21
1.726772999999999
 31
0.0
  0
LINE
  5
18B
  8
DAIKO
 10
1.774108
 20
20.539679
 30
0.0
 11
1.658906
 21
20.508811000000001
 31
0.0
  0
LINE
  5
18C
  8
DAIKO
 10
1.774108
 20
1.726772999999999
 30
0.0
 11
1.658906
 21
1.6959049999999991
 31
0.0
  0
LINE
  5
18D
  8
DAIKO
 10
11.392061999999999
 20
15.374613999999999
 30
0.0
 11
11.392061999999999
 21
18.843774
 31
0.0
  0
LINE
  5
18E
  8
DAIKO
 10
16.074728
 20
26.154928000000002
 30
0.0
 11
16.205542000000001
 21
24.615949000000001
 31
0.0
  0
TEXT
  5
18F
  8
DAIKO
 10
0.0
 20
-10.0
 30
0.0
 40
3.0
  1
DBK-40660Y
  7
BIGFONT
  0
ENDSEC
  0
EOF
