  0
SECTION
  2
HEADER
  9
$ACADVER
  1
AC1009
  9
$INSBASE
 10
0.0
 20
0.0
 30
0.0
  9
$EXTMIN
 10
0.0
 20
-10.0
 30
0.0
  9
$EXTMAX
 10
48.574110186102523
 20
49.280453519597529
 30
0.0
  9
$LIMMIN
 10
0.0
 20
0.0
  9
$LIMMAX
 10
12.0
 20
9.0
  9
$ORTHOMODE
 70
     0
  9
$REGENMODE
 70
     1
  9
$FILLMODE
 70
     1
  9
$QTEXTMODE
 70
     0
  9
$MIRRTEXT
 70
     0
  9
$DRAGMODE
 70
     2
  9
$LTSCALE
 40
1.0
  9
$OSMODE
 70
    37
  9
$ATTMODE
 70
     1
  9
$TEXTSIZE
 40
0.0
  9
$TRACEWID
 40
0.05
  9
$TEXTSTYLE
  7
STANDARD
  9
$CLAYER
  8
0
  9
$CELTYPE
  6
CONTINUOUS
  9
$CECOLOR
 62
   256
  9
$DIMSCALE
 40
1.0
  9
$DIMASZ
 40
0.18
  9
$DIMEXO
 40
0.0625
  9
$DIMDLI
 40
0.38
  9
$DIMRND
 40
0.0
  9
$DIMDLE
 40
0.0
  9
$DIMEXE
 40
0.18
  9
$DIMTP
 40
0.0
  9
$DIMTM
 40
0.0
  9
$DIMTXT
 40
0.18
  9
$DIMCEN
 40
0.09
  9
$DIMTSZ
 40
0.0
  9
$DIMTOL
 70
     0
  9
$DIMLIM
 70
     0
  9
$DIMTIH
 70
     1
  9
$DIMTOH
 70
     1
  9
$DIMSE1
 70
     0
  9
$DIMSE2
 70
     0
  9
$DIMTAD
 70
     0
  9
$DIMZIN
 70
     0
  9
$DIMBLK
  1

  9
$DIMASO
 70
     1
  9
$DIMSHO
 70
     1
  9
$DIMPOST
  1

  9
$DIMAPOST
  1

  9
$DIMALT
 70
     0
  9
$DIMALTD
 70
     2
  9
$DIMALTF
 40
25.399999999999999
  9
$DIMLFAC
 40
1.0
  9
$DIMTOFL
 70
     0
  9
$DIMTVP
 40
0.0
  9
$DIMTIX
 70
     0
  9
$DIMSOXD
 70
     0
  9
$DIMSAH
 70
     0
  9
$DIMBLK1
  1

  9
$DIMBLK2
  1

  9
$DIMSTYLE
  2
STANDARD
  9
$DIMCLRD
 70
     0
  9
$DIMCLRE
 70
     0
  9
$DIMCLRT
 70
     0
  9
$DIMTFAC
 40
1.0
  9
$DIMGAP
 40
0.09
  9
$LUNITS
 70
     2
  9
$LUPREC
 70
     4
  9
$SKETCHINC
 40
0.1
  9
$FILLETRAD
 40
0.0
  9
$AUNITS
 70
     0
  9
$AUPREC
 70
     0
  9
$MENU
  1
.
  9
$ELEVATION
 40
0.0
  9
$PELEVATION
 40
0.0
  9
$THICKNESS
 40
0.0
  9
$LIMCHECK
 70
     0
  9
$BLIPMODE
 70
     0
  9
$CHAMFERA
 40
0.0
  9
$CHAMFERB
 40
0.0
  9
$SKPOLY
 70
     0
  9
$TDCREATE
 40
2458281.7342398381
  9
$TDUPDATE
 40
2458281.7575455671
  9
$TDINDWG
 40
0.0000376736
  9
$TDUSRTIMER
 40
0.0000376736
  9
$USRTIMER
 70
     1
  9
$ANGBASE
 50
0.0
  9
$ANGDIR
 70
     0
  9
$PDMODE
 70
     0
  9
$PDSIZE
 40
0.0
  9
$PLINEWID
 40
0.0
  9
$COORDS
 70
     1
  9
$SPLFRAME
 70
     0
  9
$SPLINETYPE
 70
     6
  9
$SPLINESEGS
 70
     8
  9
$ATTDIA
 70
     0
  9
$ATTREQ
 70
     1
  9
$HANDLING
 70
     1
  9
$HANDSEED
  5
1E5
  9
$SURFTAB1
 70
     6
  9
$SURFTAB2
 70
     6
  9
$SURFTYPE
 70
     6
  9
$SURFU
 70
     6
  9
$SURFV
 70
     6
  9
$UCSNAME
  2

  9
$UCSORG
 10
0.0
 20
0.0
 30
0.0
  9
$UCSXDIR
 10
1.0
 20
0.0
 30
0.0
  9
$UCSYDIR
 10
0.0
 20
1.0
 30
0.0
  9
$PUCSNAME
  2

  9
$PUCSORG
 10
0.0
 20
0.0
 30
0.0
  9
$PUCSXDIR
 10
1.0
 20
0.0
 30
0.0
  9
$PUCSYDIR
 10
0.0
 20
1.0
 30
0.0
  9
$USERI1
 70
     0
  9
$USERI2
 70
     0
  9
$USERI3
 70
     0
  9
$USERI4
 70
     0
  9
$USERI5
 70
     0
  9
$USERR1
 40
0.0
  9
$USERR2
 40
0.0
  9
$USERR3
 40
0.0
  9
$USERR4
 40
0.0
  9
$USERR5
 40
0.0
  9
$WORLDVIEW
 70
     1
  9
$SHADEDGE
 70
     3
  9
$SHADEDIF
 70
    70
  9
$TILEMODE
 70
     1
  9
$MAXACTVP
 70
    64
  9
$PLIMCHECK
 70
     0
  9
$PEXTMIN
 10
1.0000000000000000E+020
 20
1.0000000000000000E+020
 30
1.0000000000000000E+020
  9
$PEXTMAX
 10
-1.0000000000000000E+020
 20
-1.0000000000000000E+020
 30
-1.0000000000000000E+020
  9
$PLIMMIN
 10
0.0
 20
0.0
  9
$PLIMMAX
 10
12.0
 20
9.0
  9
$UNITMODE
 70
     0
  9
$VISRETAIN
 70
     1
  9
$PLINEGEN
 70
     0
  9
$PSLTSCALE
 70
     1
  0
ENDSEC
  0
SECTION
  2
TABLES
  0
TABLE
  2
VPORT
 70
     2
  0
VPORT
  2
*ACTIVE
 70
     0
 10
0.0
 20
0.0
 11
1.0
 21
1.0
 12
24.2870991130956
 22
19.63943068707578
 13
0.0
 23
0.0
 14
1.0
 24
1.0
 15
0.0
 25
0.0
 16
0.0
 26
0.0
 36
1.0
 17
0.0
 27
0.0
 37
0.0
 40
59.821462364451861
 41
2.05722891566265
 42
50.0
 43
0.0
 44
0.0
 50
0.0
 51
0.0
 71
     0
 72
   100
 73
     1
 74
     1
 75
     0
 76
     0
 77
     0
 78
     0
  0
ENDTAB
  0
TABLE
  2
LTYPE
 70
     8
  0
LTYPE
  2
CONTINUOUS
 70
     0
  3
Solid line
 72
    65
 73
     0
 40
0.0
  0
LTYPE
  2
CENTER_DASH_DASH
 70
     0
  3
Center_Dash_Dash
 72
    65
 73
     6
 40
22.0
 49
12.0
 49
-3.0
 49
0.5
 49
-3.0
 49
0.5
 49
-3.0
  0
LTYPE
  2
DASHED
 70
     0
  3
Dashed
 72
    65
 73
     2
 40
15.0
 49
12.0
 49
-3.0
  0
LTYPE
  2
DASH_CENTER
 70
     0
  3
Dash_Center
 72
    65
 73
     4
 40
36.0
 49
24.0
 49
-3.0
 49
6.0
 49
-3.0
  0
LTYPE
  2
DOTTED
 70
     0
  3
Dotted
 72
    65
 73
     2
 40
3.5
 49
0.5
 49
-3.0
  0
LTYPE
  2
DOT_CENTER
 70
     0
  3
Dot_Center
 72
    65
 73
     4
 40
2.0
 49
1.25
 49
-0.25
 49
0.25
 49
-0.25
  0
LTYPE
  2
LONG_DASHED
 70
     0
  3
Long_Dashed
 72
    65
 73
     2
 40
2.0
 49
1.5
 49
-0.5
  0
LTYPE
  2
PHANTOM
 70
     0
  3
Phantom
 72
    65
 73
     6
 40
2.5
 49
1.25
 49
-0.25
 49
0.25
 49
-0.25
 49
0.25
 49
-0.25
  0
ENDTAB
  0
TABLE
  2
LAYER
 70
     2
  0
LAYER
  2
0
 70
     0
 62
     7
  6
CONTINUOUS
  0
LAYER
  2
DAIKO
 70
     0
 62
     7
  6
CONTINUOUS
  0
ENDTAB
  0
TABLE
  2
STYLE
 70
     3
  0
STYLE
  2
STANDARD
 70
     0
 40
0.0
 41
1.0
 50
0.0
 71
     0
 42
0.0
  3
txt
  4

  0
STYLE
  2
BIGFONT
 70
     0
 40
1.0
 41
1.0
 50
0.0
 71
     0
 42
0.0
  3
txt
  4
bigfont
  0
STYLE
  2
CONVERTER_1
 70
     0
 40
0.0
 41
0.9
 50
0.0
 71
     0
 42
0.0
  3
txt.shx
  4

  0
ENDTAB
  0
TABLE
  2
VIEW
 70
     0
  0
ENDTAB
  0
TABLE
  2
UCS
 70
     0
  0
ENDTAB
  0
TABLE
  2
APPID
 70
     1
  0
APPID
  2
ACAD
 70
     0
  0
ENDTAB
  0
TABLE
  2
DIMSTYLE
 70
     1
  0
DIMSTYLE
  2
STANDARD
 70
     0
  3

  4

  5

  6

  7

 40
1.0
 41
0.18
 42
0.0625
 43
0.38
 44
0.18
 45
0.0
 46
0.0
 47
0.0
 48
0.0
140
0.18
141
0.09
142
0.0
143
25.399999999999999
144
1.0
145
0.0
146
1.0
147
0.09
 71
     0
 72
     0
 73
     1
 74
     1
 75
     0
 76
     0
 77
     0
 78
     0
170
     0
171
     2
172
     0
173
     0
174
     0
175
     0
176
     0
177
     0
178
     0
  0
ENDTAB
  0
ENDSEC
  0
SECTION
  2
BLOCKS
  0
BLOCK
  8
0
  2
$MODEL_SPACE
 70
     0
 10
0.0
 20
0.0
 30
0.0
  3
$MODEL_SPACE
  1

  0
ENDBLK
  5
24
  8
0
  0
BLOCK
 67
     1
  8
0
  2
$PAPER_SPACE
 70
     0
 10
0.0
 20
0.0
 30
0.0
  3
$PAPER_SPACE
  1

  0
ENDBLK
  5
20
 67
     1
  8
0
  0
ENDSEC
  0
SECTION
  2
ENTITIES
  0
ARC
  5
33
  8
DAIKO
 10
0.16982
 20
0.346385
 30
0.0
 40
0.16982
 50
91.853116000000014
 51
271.853116
  0
ARC
  5
34
  8
DAIKO
 10
15.628663
 20
13.960596000000001
 30
0.0
 40
0.89632
 50
9.7322410000000001
 51
22.932936999999988
  0
ARC
  5
35
  8
DAIKO
 10
21.064398000000001
 20
14.645229999999991
 30
0.0
 40
0.6348930000000002
 50
3.055410999999999
 51
19.953437000000001
  0
ARC
  5
36
  8
DAIKO
 10
15.998042999999999
 20
14.051678000000001
 30
0.0
 40
0.6866080000000001
 50
5.0497160000000001
 51
34.595915999999988
  0
ARC
  5
37
  8
DAIKO
 10
32.576155
 20
14.051678000000001
 30
0.0
 40
0.6866080000000001
 50
145.40408400000001
 51
174.95028400000001
  0
ARC
  5
38
  8
DAIKO
 10
27.509799999999998
 20
14.645229999999991
 30
0.0
 40
0.6348930000000002
 50
160.04656299999999
 51
176.94458900000001
  0
ARC
  5
39
  8
DAIKO
 10
32.945535
 20
13.960596000000001
 30
0.0
 40
0.89632
 50
157.06706299999999
 51
170.26775900000001
  0
ARC
  5
3A
  8
DAIKO
 10
32.945535
 20
13.960596000000001
 30
0.0
 40
0.89632
 50
110.627701
 51
136.95763299999999
  0
ARC
  5
3B
  8
DAIKO
 10
48.404378999999999
 20
0.346385
 30
0.0
 40
0.16982
 50
268.146884
 51
88.146884000000014
  0
ARC
  5
3C
  8
DAIKO
 10
24.29448
 20
1.1454770000000001
 30
0.0
 40
0.5631460000000002
 50
204.824512
 51
233.38325699999999
  0
ARC
  5
3D
  8
DAIKO
 10
24.29448
 20
1.1454770000000001
 30
0.0
 40
0.5631460000000002
 50
306.61646000000002
 51
335.19300399999997
  0
ARC
  5
3E
  8
DAIKO
 10
24.192501
 20
8.3797080000000008
 30
0.0
 40
1.4252750000000001
 50
11.210989
 51
32.02238100000001
  0
ARC
  5
3F
  8
DAIKO
 10
24.380493999999999
 20
8.3797080000000008
 30
0.0
 40
1.4252750000000001
 50
147.977619
 51
168.78901099999999
  0
ARC
  5
40
  8
DAIKO
 10
35.044342999999998
 20
48.890446999999988
 30
0.0
 40
14.422737
 50
182.491906
 51
186.56566100000001
  0
ARC
  5
41
  8
DAIKO
 10
13.544817
 20
48.890446999999988
 30
0.0
 40
14.422737
 50
353.43433900000002
 51
357.50809400000003
  0
ARC
  5
42
  8
DAIKO
 10
25.706271999999998
 20
13.721577999999999
 30
0.0
 40
0.149387
 50
0.0
 51
77.814436999999998
  0
ARC
  5
43
  8
DAIKO
 10
22.867926000000001
 20
13.721577999999999
 30
0.0
 40
0.149351
 50
103.11444
 51
180.0
  0
ARC
  5
44
  8
DAIKO
 10
15.628663
 20
13.960596000000001
 30
0.0
 40
0.89632
 50
43.042366999999992
 51
69.372298999999998
  0
ARC
  5
45
  8
DAIKO
 10
24.288274000000001
 20
-267.47249900000003
 30
0.0
 40
281.89110499999998
 50
89.841281999999978
 51
90.000239000000022
  0
ARC
  5
46
  8
DAIKO
 10
24.288481999999998
 20
-267.55709100000001
 30
0.0
 40
281.75402100000002
 50
89.842050999999998
 51
90.000280999999987
  0
ARC
  5
47
  8
DAIKO
 10
24.290444000000001
 20
-5.5017420000000001
 30
0.0
 40
19.646557999999999
 50
87.743424000000005
 51
90.009754000000015
  0
ARC
  5
48
  8
DAIKO
 10
24.317965999999998
 20
-0.220893
 30
0.0
 40
14.181387000000001
 50
86.998011000000005
 51
90.124709999999993
  0
ARC
  5
49
  8
DAIKO
 10
24.406959000000001
 20
-240.07289299999999
 30
0.0
 40
254.49123700000001
 50
89.514595
 51
89.788014000000004
  0
ARC
  5
4A
  8
DAIKO
 10
24.387286
 20
-243.61748499999999
 30
0.0
 40
257.81420200000002
 50
89.518878999999998
 51
89.781109999999998
  0
ARC
  5
4B
  8
DAIKO
 10
25.496110999999999
 20
10.158796000000001
 30
0.0
 40
4.029761999999999
 50
74.907084999999995
 51
88.039045999999999
  0
ARC
  5
4C
  8
DAIKO
 10
25.258773000000001
 20
8.7034089999999988
 30
0.0
 40
5.4119320000000002
 50
76.293995999999993
 51
88.707318999999998
  0
ARC
  5
4D
  8
DAIKO
 10
25.249047000000001
 20
11.691022999999999
 30
0.0
 40
2.2303809999999991
 50
77.019216
 51
86.067926000000014
  0
ARC
  5
4E
  8
DAIKO
 10
25.669093
 20
16.881827999999999
 30
0.0
 40
3.2236509999999989
 50
273.31780300000003
 51
285.52616599999999
  0
ARC
  5
4F
  8
DAIKO
 10
24.564022000000001
 20
-220.88867099999999
 30
0.0
 40
235.30637300000001
 50
89.392424000000005
 51
89.440356000000008
  0
ARC
  5
50
  8
DAIKO
 10
26.899467000000001
 20
9.9982769999999999
 30
0.0
 40
4.186907999999999
 50
86.824381000000002
 51
90.657156999999998
  0
ARC
  5
51
  8
DAIKO
 10
24.56401
 20
249.293127
 30
0.0
 40
235.30758900000001
 50
270.55472300000002
 51
270.63906500000002
  0
ARC
  5
52
  8
DAIKO
 10
24.564005000000002
 20
249.110321
 30
0.0
 40
235.308063
 50
270.55252100000001
 51
270.65328899999997
  0
ARC
  5
53
  8
DAIKO
 10
25.145642000000009
 20
-173.12388000000001
 30
0.0
 40
187.53804299999999
 50
89.140733999999995
 51
89.319186999999999
  0
ARC
  5
54
  8
DAIKO
 10
25.146073000000001
 20
-173.356797
 30
0.0
 40
187.54927699999999
 50
89.146253999999999
 51
89.297611999999987
  0
ARC
  5
55
  8
DAIKO
 10
25.146097000000001
 20
201.536652
 30
0.0
 40
187.54756699999999
 50
270.71944200000002
 51
270.85006200000009
  0
ARC
  5
56
  8
DAIKO
 10
25.146124
 20
201.35151300000001
 30
0.0
 40
187.54570699999999
 50
270.73728
 51
270.84588600000001
  0
ARC
  5
57
  8
DAIKO
 10
26.204108000000002
 20
141.78721400000001
 30
0.0
 40
127.972099
 50
270.899316
 51
271.356244
  0
ARC
  5
58
  8
DAIKO
 10
26.196657999999999
 20
142.40316200000001
 30
0.0
 40
128.404822
 50
270.90597400000001
 51
271.34429699999998
  0
ARC
  5
59
  8
DAIKO
 10
26.148728999999999
 20
-116.72340699999999
 30
0.0
 40
130.907071
 50
88.686297999999994
 51
89.085173999999995
  0
ARC
  5
5A
  8
DAIKO
 10
26.137923000000001
 20
-117.171312
 30
0.0
 40
131.576729
 50
88.738235999999986
 51
89.076061999999993
  0
ARC
  5
5B
  8
DAIKO
 10
27.120531
 20
-78.464136999999994
 30
0.0
 40
92.857024999999993
 50
88.014402000000004
 51
88.470518999999996
  0
ARC
  5
5C
  8
DAIKO
 10
27.119246
 20
-78.727809999999991
 30
0.0
 40
92.899041999999994
 50
88.031331000000009
 51
88.488658000000001
  0
ARC
  5
5D
  8
DAIKO
 10
27.118849000000001
 20
106.922299
 30
0.0
 40
92.911971999999992
 50
271.50454100000002
 51
271.964719
  0
ARC
  5
5E
  8
DAIKO
 10
27.120104000000001
 20
106.70074
 30
0.0
 40
92.873671999999999
 50
271.55042300000002
 51
271.95072299999998
  0
ARC
  5
5F
  8
DAIKO
 10
29.460289
 20
-11.731149
 30
0.0
 40
26.083051000000001
 50
87.182360000000003
 51
87.422463000000008
  0
ARC
  5
60
  8
DAIKO
 10
29.451916000000001
 20
-12.132265
 30
0.0
 40
26.262685000000001
 50
86.839370999999986
 51
87.473800999999995
  0
ARC
  5
61
  8
DAIKO
 10
32.362014000000009
 20
-19.801155000000001
 30
0.0
 40
33.92315
 50
92.470223000000004
 51
92.967408000000006
  0
ARC
  5
62
  8
DAIKO
 10
31.380654
 20
13.044585
 30
0.0
 40
1.2381610000000001
 50
79.932592
 51
88.274668000000005
  0
ARC
  5
63
  8
DAIKO
 10
31.350546999999999
 20
15.380084999999999
 30
0.0
 40
1.444984
 50
270.888554
 51
277.69997100000001
  0
ARC
  5
64
  8
DAIKO
 10
28.079485999999999
 20
14.608949000000001
 30
0.0
 40
3.01641
 50
166.41656599999999
 51
183.63850099999999
  0
ARC
  5
65
  8
DAIKO
 10
25.376839
 20
15.293234
 30
0.0
 40
0.230659
 50
156.81601900000001
 51
173.989622
  0
ARC
  5
66
  8
DAIKO
 10
25.192060000000001
 20
15.366720000000001
 30
0.0
 40
0.032293
 50
36.526994000000002
 51
147.56195600000001
  0
ARC
  5
67
  8
DAIKO
 10
25.066342000000009
 20
15.310124999999999
 30
0.0
 40
0.169563
 50
5.9800199999999988
 51
26.559609999999999
  0
ARC
  5
68
  8
DAIKO
 10
22.939442
 20
14.785285
 30
0.0
 40
2.3590990000000001
 50
3.3109229999999998
 51
13.362182000000001
  0
ARC
  5
69
  8
DAIKO
 10
28.67679600000001
 20
14.417441
 30
0.0
 40
2.113850999999999
 50
158.68016
 51
180.223062
  0
ARC
  5
6A
  8
DAIKO
 10
27.07035900000001
 20
15.067207
 30
0.0
 40
0.381704
 50
127.36016499999999
 51
161.87015500000001
  0
ARC
  5
6B
  8
DAIKO
 10
26.909580999999999
 20
15.262047000000001
 30
0.0
 40
0.129627
 50
51.279913999999991
 51
123.131573
  0
ARC
  5
6C
  8
DAIKO
 10
26.337447999999998
 20
14.790854
 30
0.0
 40
0.8684770000000001
 50
17.667045999999999
 51
41.223925000000001
  0
ARC
  5
6D
  8
DAIKO
 10
29.429531000000001
 20
14.27764
 30
0.0
 40
1.476964999999999
 50
144.77329800000001
 51
175.81150299999999
  0
ARC
  5
6E
  8
DAIKO
 10
28.686916
 20
14.830341000000001
 30
0.0
 40
0.55202
 50
104.89908200000001
 51
147.17565099999999
  0
ARC
  5
6F
  8
DAIKO
 10
28.602861999999998
 20
14.984108000000001
 30
0.0
 40
0.384081
 50
43.500919000000003
 51
98.667376000000004
  0
ARC
  5
70
  8
DAIKO
 10
28.244837
 20
14.6378
 30
0.0
 40
0.8821790000000001
 50
26.67620100000001
 51
43.809244
  0
ARC
  5
71
  8
DAIKO
 10
28.412938
 20
14.767657
 30
0.0
 40
0.377398
 50
20.094719999999999
 51
49.98672899999999
  0
ARC
  5
72
  8
DAIKO
 10
28.600014999999999
 20
14.956367
 30
0.0
 40
0.114701
 50
61.01803799999999
 51
125.22470800000001
  0
ARC
  5
73
  8
DAIKO
 10
28.849046000000001
 20
14.636975
 30
0.0
 40
0.519604
 50
127.34366300000001
 51
160.23722799999999
  0
ARC
  5
74
  8
DAIKO
 10
30.349305000000001
 20
14.117766
 30
0.0
 40
2.1071390000000001
 50
160.744338
 51
172.62322399999999
  0
ARC
  5
75
  8
DAIKO
 10
30.598680999999999
 20
14.262102000000001
 30
0.0
 40
1.3037339999999991
 50
140.42685900000001
 51
170.17578499999999
  0
ARC
  5
76
  8
DAIKO
 10
30.107206999999999
 20
14.688395999999999
 30
0.0
 40
0.653508
 50
96.625606000000005
 51
141.78524100000001
  0
ARC
  5
77
  8
DAIKO
 10
30.068857999999999
 20
14.728123999999999
 30
0.0
 40
0.61054
 50
49.865217999999999
 51
93.479415999999986
  0
ARC
  5
78
  8
DAIKO
 10
29.851331999999999
 20
14.462794000000001
 30
0.0
 40
0.9536190000000001
 50
34.369942000000009
 51
50.149001000000013
  0
ARC
  5
79
  8
DAIKO
 10
31.113610000000001
 20
14.660382999999999
 30
0.0
 40
0.5762890000000001
 50
114.890883
 51
144.65744100000001
  0
ARC
  5
7A
  8
DAIKO
 10
31.291198000000001
 20
14.50184
 30
0.0
 40
0.800433
 50
82.507804000000007
 51
121.66119
  0
ARC
  5
7B
  8
DAIKO
 10
31.254698000000001
 20
14.396404
 30
0.0
 40
0.9100039999999999
 50
38.562764000000001
 51
81.094755000000006
  0
ARC
  5
7C
  8
DAIKO
 10
32.196670000000012
 20
14.251505999999999
 30
0.0
 40
1.0045779999999991
 50
69.435783999999984
 51
115.943037
  0
ARC
  5
7D
  8
DAIKO
 10
32.756324999999997
 20
14.065417999999999
 30
0.0
 40
1.1454729999999991
 50
69.058480000000003
 51
100.400513
  0
ARC
  5
7E
  8
DAIKO
 10
32.146588000000001
 20
14.146665
 30
0.0
 40
1.120374999999999
 50
40.767397000000003
 51
68.921059999999997
  0
ARC
  5
7F
  8
DAIKO
 10
29.853411000000001
 20
14.435136999999999
 30
0.0
 40
0.6743000000000001
 50
26.982320000000009
 51
55.749851
  0
ARC
  5
80
  8
DAIKO
 10
30.080375
 20
14.772262
 30
0.0
 40
0.267908
 50
55.294252
 51
125.68236899999999
  0
ARC
  5
81
  8
DAIKO
 10
30.30985900000001
 20
14.442000999999999
 30
0.0
 40
0.6700510000000001
 50
125.149035
 51
157.71844200000001
  0
ARC
  5
82
  8
DAIKO
 10
30.824501999999999
 20
14.209152
 30
0.0
 40
1.2347209999999991
 50
156.77497199999999
 51
172.99168399999999
  0
ARC
  5
83
  8
DAIKO
 10
31.712993000000001
 20
14.159485
 30
0.0
 40
1.3865529999999999
 50
155.20003700000001
 51
172.638915
  0
ARC
  5
84
  8
DAIKO
 10
31.616993999999998
 20
14.203200000000001
 30
0.0
 40
0.98772
 50
165.922349
 51
174.62785199999999
  0
ARC
  5
85
  8
DAIKO
 10
31.320167999999999
 20
14.397625
 30
0.0
 40
0.6142120000000001
 50
113.89191599999999
 51
145.53590800000001
  0
ARC
  5
86
  8
DAIKO
 10
31.281331999999999
 20
14.485669
 30
0.0
 40
0.5179840000000001
 50
70.803837000000001
 51
113.90859500000001
  0
ARC
  5
87
  8
DAIKO
 10
31.184273000000001
 20
14.295783
 30
0.0
 40
0.7298100000000001
 50
38.097560999999999
 51
68.508631999999992
  0
ARC
  5
88
  8
DAIKO
 10
32.312142000000001
 20
14.141831
 30
0.0
 40
1.1992689999999999
 50
136.13480100000001
 51
155.82884899999999
  0
ARC
  5
89
  8
DAIKO
 10
32.377569999999999
 20
14.110642
 30
0.0
 40
1.271731999999999
 50
155.75385299999999
 51
171.16866899999999
  0
ARC
  5
8A
  8
DAIKO
 10
32.263640000000002
 20
14.232500999999999
 30
0.0
 40
0.848529
 50
134.49912
 51
178.45494400000001
  0
ARC
  5
8B
  8
DAIKO
 10
32.825693999999999
 20
14.093489
 30
0.0
 40
1.240332999999999
 50
148.821853
 51
172.11326199999999
  0
ARC
  5
8C
  8
DAIKO
 10
32.659228000000013
 20
14.160557000000001
 30
0.0
 40
0.6727210000000001
 50
96.531586000000004
 51
131.451111
  0
ARC
  5
8D
  8
DAIKO
 10
32.121416000000004
 20
14.057371
 30
0.0
 40
0.8983969999999999
 50
58.537590999999999
 51
98.937550999999985
  0
ARC
  5
8E
  8
DAIKO
 10
32.751522999999999
 20
14.040214000000001
 30
0.0
 40
0.8727309999999999
 50
45.076940999999998
 51
73.792065000000008
  0
ARC
  5
8F
  8
DAIKO
 10
32.748427
 20
14.046336
 30
0.0
 40
1.1661179999999991
 50
45.094598000000012
 51
69.031137999999984
  0
ARC
  5
90
  8
DAIKO
 10
32.945211
 20
13.959877000000001
 30
0.0
 40
1.1958599999999999
 50
45.407304000000003
 51
79.373489000000006
  0
ARC
  5
91
  8
DAIKO
 10
29.446035999999999
 20
40.255977000000001
 30
0.0
 40
26.388248000000001
 50
272.46847000000008
 51
273.42014599999999
  0
ARC
  5
92
  8
DAIKO
 10
24.572282999999999
 20
6.1565830000000004
 30
0.0
 40
3.369321999999999
 50
83.024515000000008
 51
94.855393999999976
  0
ARC
  5
93
  8
DAIKO
 10
24.886896
 20
3.1192919999999988
 30
0.0
 40
6.3785360000000004
 50
83.941511000000006
 51
86.436238000000003
  0
ARC
  5
94
  8
DAIKO
 10
24.323364999999999
 20
-8.9951249999999998
 30
0.0
 40
18.300198000000002
 50
87.950706999999994
 51
90.113543000000007
  0
ARC
  5
95
  8
DAIKO
 10
24.449701000000001
 20
-4.9896349999999989
 30
0.0
 40
14.270591
 50
86.667657999999975
 51
90.652854000000005
  0
ARC
  5
96
  8
DAIKO
 10
25.279433999999998
 20
9.1543799999999997
 30
0.0
 40
0.047264
 50
44.814759999999993
 51
91.483269999999976
  0
ARC
  5
97
  8
DAIKO
 10
24.983089
 20
13.036835
 30
0.0
 40
3.8612589999999991
 50
274.88357600000001
 51
277.57529299999999
  0
ARC
  5
98
  8
DAIKO
 10
25.469092
 20
9.454034
 30
0.0
 40
0.245839
 50
275.373651
 51
298.02545300000003
  0
ARC
  5
99
  8
DAIKO
 10
25.484058000000001
 20
9.3531149999999972
 30
0.0
 40
0.144065
 50
273.20603199999999
 51
294.50142900000009
  0
ARC
  5
9A
  8
DAIKO
 10
25.531970000000001
 20
9.2514450000000004
 30
0.0
 40
0.031712
 50
291.90983599999998
 51
318.38856800000002
  0
ARC
  5
9B
  8
DAIKO
 10
25.551901000000001
 20
9.2333600000000011
 30
0.0
 40
0.00481
 50
321.79185000000001
 51
72.112785000000002
  0
ARC
  5
9C
  8
DAIKO
 10
25.480522000000001
 20
9.1019800000000011
 30
0.0
 40
0.154249
 50
61.814172000000013
 51
72.060339999999997
  0
ARC
  5
9D
  8
DAIKO
 10
25.255087
 20
7.7960739999999999
 30
0.0
 40
1.478075
 50
79.358542
 51
82.919156999999998
  0
ARC
  5
9E
  8
DAIKO
 10
25.084993999999998
 20
6.3741050000000001
 30
0.0
 40
2.9101739999999992
 50
83.046930000000003
 51
86.165777000000006
  0
ARC
  5
9F
  8
DAIKO
 10
24.491757
 20
2.9784759999999988
 30
0.0
 40
2.1854740000000001
 50
347.12761399999999
 51
14.510923
  0
ARC
  5
A0
  8
DAIKO
 10
25.120341
 20
2.5487820000000001
 30
0.0
 40
1.459249999999999
 50
319.02980100000002
 51
330.48775599999999
  0
ARC
  5
A1
  8
DAIKO
 10
24.733221
 20
2.839434999999999
 30
0.0
 40
1.9362740000000001
 50
281.75748900000008
 51
307.26109200000002
  0
ARC
  5
A2
  8
DAIKO
 10
25.749683000000001
 20
90.776493000000002
 30
0.0
 40
90.094875000000002
 50
269.06983000000002
 51
270.87562100000002
  0
ARC
  5
A3
  8
DAIKO
 10
26.677341999999999
 20
0.566155
 30
0.0
 40
0.182121
 50
40.769736999999992
 51
136.01288700000001
  0
ARC
  5
A4
  8
DAIKO
 10
24.715919
 20
-2662.575143
 30
0.0
 40
2663.268372
 50
89.828389000000001
 51
89.948140000000009
  0
ARC
  5
A5
  8
DAIKO
 10
31.633562000000001
 20
0.6044520000000001
 30
0.0
 40
0.151193
 50
32.542704999999998
 51
147.93292099999999
  0
ARC
  5
A6
  8
DAIKO
 10
29.207636999999998
 20
-1502.4869450000001
 30
0.0
 40
1503.1722689999999
 50
89.493281999999994
 51
89.867154999999997
  0
ARC
  5
A7
  8
DAIKO
 10
36.243831999999998
 20
0.5546520000000001
 30
0.0
 40
0.178147
 50
40.09572
 51
140.150642
  0
ARC
  5
A8
  8
DAIKO
 10
40.351559000000002
 20
0.5787399999999999
 30
0.0
 40
0.118348
 50
34.491886000000001
 51
145.50811400000001
  0
ARC
  5
A9
  8
DAIKO
 10
38.788210999999997
 20
-446.34132599999998
 30
0.0
 40
446.98328800000002
 50
88.879891999999984
 51
89.524031999999991
  0
ARC
  5
AA
  8
DAIKO
 10
47.318550000000002
 20
-13.718685000000001
 30
0.0
 40
14.276742
 50
85.511364999999998
 51
89.167490999999998
  0
ARC
  5
AB
  8
DAIKO
 10
47.810344000000001
 20
0.6090670000000001
 30
0.0
 40
0.074187
 50
308.03061600000001
 51
0.593838
  0
ARC
  5
AC
  8
DAIKO
 10
47.946192999999987
 20
0.384191
 30
0.0
 40
0.233919
 50
105.284752
 51
134.64065299999999
  0
ARC
  5
AD
  8
DAIKO
 10
46.291327000000003
 20
0.614794
 30
0.0
 40
0.042438
 50
303.54852399999999
 51
38.129503
  0
ARC
  5
AE
  8
DAIKO
 10
46.368602000000003
 20
0.4013440000000001
 30
0.0
 40
0.243639
 50
100.378697
 51
133.03641500000001
  0
ARC
  5
AF
  8
DAIKO
 10
43.773741999999999
 20
0.6390550000000002
 30
0.0
 40
0.046974
 50
329.71969799999999
 51
35.323329999999999
  0
ARC
  5
B0
  8
DAIKO
 10
43.76979
 20
0.5974270000000002
 30
0.0
 40
0.080741
 50
58.424036999999998
 51
116.35343899999999
  0
ARC
  5
B1
  8
DAIKO
 10
43.851387000000003
 20
0.384803
 30
0.0
 40
0.308224
 50
112.39659
 51
131.578563
  0
ARC
  5
B2
  8
DAIKO
 10
30.658256000000002
 20
-827.71172699999988
 30
0.0
 40
828.13095199999998
 50
88.790059999999997
 51
90.440804999999983
  0
ARC
  5
B3
  8
DAIKO
 10
24.804103999999999
 20
2546.6939640000001
 30
0.0
 40
2546.6939640000001
 50
269.98836800000009
 51
270.26599900000002
  0
ARC
  5
B4
  8
DAIKO
 10
38.612774999999999
 20
307.80959100000001
 30
0.0
 40
307.78855099999998
 50
269.63038299999999
 51
271.822022
  0
ARC
  5
B5
  8
DAIKO
 10
24.304044999999999
 20
23.233415999999998
 30
0.0
 40
2.1234419999999989
 50
84.604559999999978
 51
90.457233999999985
  0
ARC
  5
B6
  8
DAIKO
 10
24.482173
 20
24.89255
 30
0.0
 40
0.455408
 50
72.741268999999974
 51
87.289415000000005
  0
ARC
  5
B7
  8
DAIKO
 10
24.615836000000002
 20
25.307974000000002
 30
0.0
 40
0.019534
 50
17.913882000000001
 51
85.74033
  0
ARC
  5
B8
  8
DAIKO
 10
24.466602999999999
 20
46.768467000000001
 30
0.0
 40
0.308741
 50
276.90285399999999
 51
296.81803300000013
  0
ARC
  5
B9
  8
DAIKO
 10
24.588462
 20
46.536259000000001
 30
0.0
 40
0.046702
 50
291.91808300000002
 51
326.833529
  0
ARC
  5
BA
  8
DAIKO
 10
24.611336999999999
 20
46.522407000000001
 30
0.0
 40
0.019996
 50
324.19825600000001
 51
36.259956000000003
  0
ARC
  5
BB
  8
DAIKO
 10
24.571345000000001
 20
46.48753099999999
 30
0.0
 40
0.073008
 50
39.768923999999998
 51
61.687007999999999
  0
ARC
  5
BC
  8
DAIKO
 10
24.429129
 20
46.152782999999992
 30
0.0
 40
0.436454
 50
66.097544000000013
 51
80.161085999999997
  0
ARC
  5
BD
  8
DAIKO
 10
24.298957999999999
 20
45.334018999999998
 30
0.0
 40
1.265472999999999
 50
80.688678999999993
 51
90.536918000000014
  0
ARC
  5
BE
  8
DAIKO
 10
24.314336999999998
 20
75.478564000000006
 30
0.0
 40
29.349720000000001
 50
270.36969199999999
 51
271.76382100000001
  0
ARC
  5
BF
  8
DAIKO
 10
25.123342999999998
 20
59.527866000000003
 30
0.0
 40
13.385448999999999
 50
270.40393499999999
 51
279.11038500000001
  0
ARC
  5
C0
  8
DAIKO
 10
27.198035000000001
 20
47.398515000000003
 30
0.0
 40
1.0881609999999999
 50
272.35538100000002
 51
298.047032
  0
ARC
  5
C1
  8
DAIKO
 10
27.653383999999999
 20
46.568466999999998
 30
0.0
 40
0.141963
 50
293.36471699999998
 51
334.91407500000003
  0
ARC
  5
C2
  8
DAIKO
 10
27.734051999999998
 20
46.529193999999997
 30
0.0
 40
0.052271
 50
336.41304300000002
 51
75.085481000000001
  0
ARC
  5
C3
  8
DAIKO
 10
27.392983000000001
 20
46.029676000000002
 30
0.0
 40
0.6543830000000001
 50
57.196004000000002
 51
77.952718000000004
  0
ARC
  5
C4
  8
DAIKO
 10
25.423470999999999
 20
36.328113000000002
 30
0.0
 40
10.553812000000001
 50
78.488907999999995
 51
87.042681000000002
  0
ARC
  5
C5
  8
DAIKO
 10
24.32237000000001
 20
18.789628
 30
0.0
 40
28.126422999999999
 50
86.645877999999996
 51
90.071849
  0
ARC
  5
C6
  8
DAIKO
 10
24.414769
 20
29.426459999999999
 30
0.0
 40
19.854403999999999
 50
84.612887000000001
 51
90.368431000000001
  0
ARC
  5
C7
  8
DAIKO
 10
26.151674
 20
44.439557000000001
 30
0.0
 40
4.755310999999999
 50
70.739793999999975
 51
88.468254000000002
  0
ARC
  5
C8
  8
DAIKO
 10
27.632142000000002
 20
48.521309000000002
 30
0.0
 40
0.416826
 50
41.446863999999998
 51
77.796157999999991
  0
ARC
  5
C9
  8
DAIKO
 10
27.880800000000001
 20
48.725636999999999
 30
0.0
 40
0.095874
 50
343.80505299999999
 51
48.296920999999998
  0
ARC
  5
CA
  8
DAIKO
 10
20.693397999999998
 20
48.725636999999999
 30
0.0
 40
0.095874
 50
131.703079
 51
196.19494700000001
  0
ARC
  5
CB
  8
DAIKO
 10
20.942056000000001
 20
48.521309000000002
 30
0.0
 40
0.416826
 50
102.20384199999999
 51
138.55313599999999
  0
ARC
  5
CC
  8
DAIKO
 10
22.422523999999999
 20
44.439557000000001
 30
0.0
 40
4.755310999999999
 50
91.531746000000012
 51
109.260206
  0
ARC
  5
CD
  8
DAIKO
 10
24.15943
 20
29.426459999999999
 30
0.0
 40
19.854403999999999
 50
89.631568999999985
 51
95.387112999999985
  0
ARC
  5
CE
  8
DAIKO
 10
24.251829000000001
 20
18.789628
 30
0.0
 40
28.126422999999999
 50
89.928150999999986
 51
93.354122000000004
  0
ARC
  5
CF
  8
DAIKO
 10
23.150728000000001
 20
36.328113000000002
 30
0.0
 40
10.553812000000001
 50
92.957318999999984
 51
101.511092
  0
ARC
  5
D0
  8
DAIKO
 10
21.181215999999999
 20
46.029676000000002
 30
0.0
 40
0.6543830000000001
 50
102.047282
 51
122.803996
  0
ARC
  5
D1
  8
DAIKO
 10
20.840146000000001
 20
46.529193999999997
 30
0.0
 40
0.052271
 50
104.914519
 51
203.58695700000001
  0
ARC
  5
D2
  8
DAIKO
 10
20.920814
 20
46.568466999999998
 30
0.0
 40
0.141963
 50
205.085925
 51
246.63528299999999
  0
ARC
  5
D3
  8
DAIKO
 10
21.376163999999999
 20
47.398515000000003
 30
0.0
 40
1.0881609999999999
 50
241.95296800000011
 51
267.64461899999998
  0
ARC
  5
D4
  8
DAIKO
 10
23.450855000000001
 20
59.527866000000003
 30
0.0
 40
13.385448999999999
 50
260.88961499999999
 51
269.59606500000001
  0
ARC
  5
D5
  8
DAIKO
 10
24.259861999999998
 20
75.478564000000006
 30
0.0
 40
29.349720000000001
 50
268.23617899999999
 51
269.63030800000001
  0
ARC
  5
D6
  8
DAIKO
 10
24.275241000000001
 20
45.334018999999998
 30
0.0
 40
1.265472999999999
 50
89.463082
 51
99.311321000000007
  0
ARC
  5
D7
  8
DAIKO
 10
24.145068999999999
 20
46.152782999999992
 30
0.0
 40
0.436454
 50
99.838914000000003
 51
113.902456
  0
ARC
  5
D8
  8
DAIKO
 10
24.002853999999999
 20
46.48753099999999
 30
0.0
 40
0.073008
 50
118.31299199999999
 51
140.231076
  0
ARC
  5
D9
  8
DAIKO
 10
23.962861
 20
46.522407000000001
 30
0.0
 40
0.019996
 50
143.74004400000001
 51
215.80174400000001
  0
ARC
  5
DA
  8
DAIKO
 10
23.985737
 20
46.536259000000001
 30
0.0
 40
0.046702
 50
213.166471
 51
248.081917
  0
ARC
  5
DB
  8
DAIKO
 10
24.107595
 20
46.768467000000001
 30
0.0
 40
0.308741
 50
243.18196699999999
 51
263.09714600000001
  0
ARC
  5
DC
  8
DAIKO
 10
23.958362000000001
 20
25.307974000000002
 30
0.0
 40
0.019534
 50
94.259670000000014
 51
162.086118
  0
ARC
  5
DD
  8
DAIKO
 10
24.092025
 20
24.89255
 30
0.0
 40
0.455408
 50
92.710584999999995
 51
107.258731
  0
ARC
  5
DE
  8
DAIKO
 10
24.270154000000002
 20
23.233415999999998
 30
0.0
 40
2.1234419999999989
 50
89.542766
 51
95.395440000000008
  0
ARC
  5
DF
  8
DAIKO
 10
9.9614229999999981
 20
307.80959100000001
 30
0.0
 40
307.78855099999998
 50
268.177978
 51
270.36961700000001
  0
ARC
  5
E0
  8
DAIKO
 10
23.770095000000001
 20
2546.6939640000001
 30
0.0
 40
2546.6939640000001
 50
269.73400099999998
 51
270.01163200000002
  0
ARC
  5
E1
  8
DAIKO
 10
17.915942000000001
 20
-827.71172699999988
 30
0.0
 40
828.13095199999998
 50
89.559194999999974
 51
91.209940000000003
  0
ARC
  5
E2
  8
DAIKO
 10
4.7228120000000002
 20
0.384803
 30
0.0
 40
0.308224
 50
48.421436999999997
 51
67.603410000000011
  0
ARC
  5
E3
  8
DAIKO
 10
4.8044079999999996
 20
0.5974270000000002
 30
0.0
 40
0.080741
 50
63.646560999999998
 51
121.575963
  0
ARC
  5
E4
  8
DAIKO
 10
4.8004559999999987
 20
0.6390550000000002
 30
0.0
 40
0.046974
 50
144.67667
 51
210.28030200000001
  0
ARC
  5
E5
  8
DAIKO
 10
2.205595999999999
 20
0.4013440000000001
 30
0.0
 40
0.243639
 50
46.963584999999988
 51
79.621302999999997
  0
ARC
  5
E6
  8
DAIKO
 10
2.2828710000000001
 20
0.614794
 30
0.0
 40
0.042438
 50
141.870497
 51
236.45147600000001
  0
ARC
  5
E7
  8
DAIKO
 10
0.6280060000000001
 20
0.384191
 30
0.0
 40
0.233919
 50
45.359347000000007
 51
74.715248000000017
  0
ARC
  5
E8
  8
DAIKO
 10
0.7638540000000001
 20
0.6090670000000001
 30
0.0
 40
0.074187
 50
179.40616199999999
 51
231.96938399999999
  0
ARC
  5
E9
  8
DAIKO
 10
1.255647999999999
 20
-13.718685000000001
 30
0.0
 40
14.276742
 50
90.832509000000016
 51
94.488635000000016
  0
ARC
  5
EA
  8
DAIKO
 10
9.7859869999999987
 20
-446.34132599999998
 30
0.0
 40
446.98328800000002
 50
90.475967999999995
 51
91.120108000000002
  0
ARC
  5
EB
  8
DAIKO
 10
8.2226400000000002
 20
0.5787399999999999
 30
0.0
 40
0.118348
 50
34.491886000000001
 51
145.50811400000001
  0
ARC
  5
EC
  8
DAIKO
 10
12.330366
 20
0.5546520000000001
 30
0.0
 40
0.178147
 50
39.849358000000002
 51
139.90428
  0
ARC
  5
ED
  8
DAIKO
 10
19.366561999999998
 20
-1502.4869450000001
 30
0.0
 40
1503.1722689999999
 50
90.132844999999989
 51
90.506718000000006
  0
ARC
  5
EE
  8
DAIKO
 10
16.940636999999999
 20
0.6044520000000001
 30
0.0
 40
0.151193
 50
32.067079
 51
147.45729499999999
  0
ARC
  5
EF
  8
DAIKO
 10
23.858279
 20
-2662.575143
 30
0.0
 40
2663.268372
 50
90.051860000000005
 51
90.171610999999999
  0
ARC
  5
F0
  8
DAIKO
 10
21.896856
 20
0.566155
 30
0.0
 40
0.182121
 50
43.987113000000001
 51
139.23026300000001
  0
ARC
  5
F1
  8
DAIKO
 10
22.824515000000002
 20
90.776493000000002
 30
0.0
 40
90.094875000000002
 50
269.12437899999998
 51
270.93017000000009
  0
ARC
  5
F2
  8
DAIKO
 10
23.840978
 20
2.839434999999999
 30
0.0
 40
1.9362740000000001
 50
232.73890800000001
 51
258.24251099999998
  0
ARC
  5
F3
  8
DAIKO
 10
23.453856999999999
 20
2.5487820000000001
 30
0.0
 40
1.459249999999999
 50
209.51224400000001
 51
220.97019900000009
  0
ARC
  5
F4
  8
DAIKO
 10
24.082440999999999
 20
2.9784759999999988
 30
0.0
 40
2.1854740000000001
 50
165.48907700000001
 51
192.87238600000001
  0
ARC
  5
F5
  8
DAIKO
 10
23.489204000000001
 20
6.3741050000000001
 30
0.0
 40
2.9101739999999992
 50
93.834222999999994
 51
96.953069999999997
  0
ARC
  5
F6
  8
DAIKO
 10
23.319110999999999
 20
7.7960739999999999
 30
0.0
 40
1.478075
 50
97.080843000000016
 51
100.641458
  0
ARC
  5
F7
  8
DAIKO
 10
23.093677
 20
9.1019800000000011
 30
0.0
 40
0.154249
 50
107.93966
 51
118.185828
  0
ARC
  5
F8
  8
DAIKO
 10
23.022296999999998
 20
9.2333600000000011
 30
0.0
 40
0.00481
 50
107.887215
 51
218.20814999999999
  0
ARC
  5
F9
  8
DAIKO
 10
23.042228000000001
 20
9.2514450000000004
 30
0.0
 40
0.031712
 50
221.61143200000001
 51
248.09016399999999
  0
ARC
  5
FA
  8
DAIKO
 10
23.090140999999999
 20
9.3531149999999972
 30
0.0
 40
0.144065
 50
245.498571
 51
266.79396800000001
  0
ARC
  5
FB
  8
DAIKO
 10
23.105107
 20
9.454034
 30
0.0
 40
0.245839
 50
241.974547
 51
264.626349
  0
ARC
  5
FC
  8
DAIKO
 10
23.591108999999999
 20
13.036835
 30
0.0
 40
3.8612589999999991
 50
262.42470700000001
 51
265.11642399999999
  0
ARC
  5
FD
  8
DAIKO
 10
23.294765000000002
 20
9.1543799999999997
 30
0.0
 40
0.047264
 50
88.51673000000001
 51
135.18523999999999
  0
ARC
  5
FE
  8
DAIKO
 10
24.124497000000002
 20
-4.9896349999999989
 30
0.0
 40
14.270591
 50
89.347145999999995
 51
93.332342000000011
  0
ARC
  5
FF
  8
DAIKO
 10
24.250834000000001
 20
-8.9951249999999998
 30
0.0
 40
18.300198000000002
 50
89.886456999999993
 51
92.049292999999992
  0
ARC
  5
100
  8
DAIKO
 10
23.687301999999999
 20
3.1192919999999988
 30
0.0
 40
6.3785360000000004
 50
93.563761999999997
 51
96.058488999999994
  0
ARC
  5
101
  8
DAIKO
 10
24.001916000000001
 20
6.1565830000000004
 30
0.0
 40
3.369321999999999
 50
85.14460600000001
 51
96.975484999999992
  0
ARC
  5
102
  8
DAIKO
 10
19.128162
 20
40.255977000000001
 30
0.0
 40
26.388248000000001
 50
266.57985400000013
 51
267.53152999999998
  0
ARC
  5
103
  8
DAIKO
 10
15.628988
 20
13.959877000000001
 30
0.0
 40
1.1958599999999999
 50
100.62651099999999
 51
134.59269599999999
  0
ARC
  5
104
  8
DAIKO
 10
15.825772000000001
 20
14.046336
 30
0.0
 40
1.1661179999999991
 50
110.968862
 51
134.90540200000001
  0
ARC
  5
105
  8
DAIKO
 10
15.822676
 20
14.040214000000001
 30
0.0
 40
0.8727309999999999
 50
106.20793500000001
 51
134.92305899999999
  0
ARC
  5
106
  8
DAIKO
 10
16.452781999999999
 20
14.057371
 30
0.0
 40
0.8983969999999999
 50
81.062449000000001
 51
121.46240899999999
  0
ARC
  5
107
  8
DAIKO
 10
15.91497
 20
14.160557000000001
 30
0.0
 40
0.6727210000000001
 50
48.548889000000003
 51
83.468413999999996
  0
ARC
  5
108
  8
DAIKO
 10
15.748504000000001
 20
14.093489
 30
0.0
 40
1.240332999999999
 50
7.8867380000000002
 51
31.178146999999999
  0
ARC
  5
109
  8
DAIKO
 10
16.310558
 20
14.232500999999999
 30
0.0
 40
0.848529
 50
1.5450559999999991
 51
45.500880000000002
  0
ARC
  5
10A
  8
DAIKO
 10
16.196629000000001
 20
14.110642
 30
0.0
 40
1.271731999999999
 50
8.8313310000000005
 51
24.246147000000001
  0
ARC
  5
10B
  8
DAIKO
 10
16.262056000000001
 20
14.141831
 30
0.0
 40
1.1992689999999999
 50
24.171151000000009
 51
43.86519899999999
  0
ARC
  5
10C
  8
DAIKO
 10
17.389925999999999
 20
14.295783
 30
0.0
 40
0.7298100000000001
 50
111.49136799999999
 51
141.90243899999999
  0
ARC
  5
10D
  8
DAIKO
 10
17.292866
 20
14.485669
 30
0.0
 40
0.5179840000000001
 50
66.091405000000009
 51
109.1961629999999
  0
ARC
  5
10E
  8
DAIKO
 10
17.25403
 20
14.397625
 30
0.0
 40
0.6142120000000001
 50
34.464092000000001
 51
66.108083999999991
  0
ARC
  5
10F
  8
DAIKO
 10
16.957204000000001
 20
14.203200000000001
 30
0.0
 40
0.98772
 50
5.3721480000000001
 51
14.077650999999999
  0
ARC
  5
110
  8
DAIKO
 10
16.861205999999999
 20
14.159485
 30
0.0
 40
1.3865529999999999
 50
7.3610850000000001
 51
24.799963000000002
  0
ARC
  5
111
  8
DAIKO
 10
17.749696
 20
14.209152
 30
0.0
 40
1.2347209999999991
 50
7.0083159999999998
 51
23.225027999999998
  0
ARC
  5
112
  8
DAIKO
 10
18.264340000000001
 20
14.442000999999999
 30
0.0
 40
0.6700510000000001
 50
22.281558
 51
54.850965000000002
  0
ARC
  5
113
  8
DAIKO
 10
18.493822999999999
 20
14.772262
 30
0.0
 40
0.267908
 50
54.317631000000013
 51
124.705748
  0
ARC
  5
114
  8
DAIKO
 10
18.720787000000001
 20
14.435136999999999
 30
0.0
 40
0.6743000000000001
 50
124.25014899999989
 51
153.01768000000001
  0
ARC
  5
115
  8
DAIKO
 10
16.427610000000001
 20
14.146665
 30
0.0
 40
1.120374999999999
 50
111.07894
 51
139.23260300000001
  0
ARC
  5
116
  8
DAIKO
 10
15.817873000000001
 20
14.065417999999999
 30
0.0
 40
1.1454729999999991
 50
79.599486999999996
 51
110.94152
  0
ARC
  5
117
  8
DAIKO
 10
16.377528000000002
 20
14.251505999999999
 30
0.0
 40
1.0045779999999991
 50
64.056962999999996
 51
110.564216
  0
ARC
  5
118
  8
DAIKO
 10
17.319500000000001
 20
14.396404
 30
0.0
 40
0.9100039999999999
 50
98.905244999999994
 51
141.43723600000001
  0
ARC
  5
119
  8
DAIKO
 10
17.283000000000001
 20
14.50184
 30
0.0
 40
0.800433
 50
58.338810000000002
 51
97.492195999999979
  0
ARC
  5
11A
  8
DAIKO
 10
17.460588000000001
 20
14.660382999999999
 30
0.0
 40
0.5762890000000001
 50
35.342559000000001
 51
65.109116999999998
  0
ARC
  5
11B
  8
DAIKO
 10
18.722867000000001
 20
14.462794000000001
 30
0.0
 40
0.9536190000000001
 50
129.850999
 51
145.63005799999999
  0
ARC
  5
11C
  8
DAIKO
 10
18.505341000000001
 20
14.728123999999999
 30
0.0
 40
0.61054
 50
86.520583999999985
 51
130.134782
  0
ARC
  5
11D
  8
DAIKO
 10
18.466992000000001
 20
14.688395999999999
 30
0.0
 40
0.653508
 50
38.214759000000001
 51
83.374393999999995
  0
ARC
  5
11E
  8
DAIKO
 10
17.975518000000001
 20
14.262102000000001
 30
0.0
 40
1.3037339999999991
 50
9.8242149999999988
 51
39.573141
  0
ARC
  5
11F
  8
DAIKO
 10
18.224893999999999
 20
14.117766
 30
0.0
 40
2.1071390000000001
 50
7.3767759999999978
 51
19.255662000000001
  0
ARC
  5
120
  8
DAIKO
 10
19.725152000000001
 20
14.636975
 30
0.0
 40
0.519604
 50
19.762771999999998
 51
52.656337000000001
  0
ARC
  5
121
  8
DAIKO
 10
19.974183
 20
14.956367
 30
0.0
 40
0.114701
 50
54.775292000000007
 51
118.981962
  0
ARC
  5
122
  8
DAIKO
 10
20.161259999999999
 20
14.767657
 30
0.0
 40
0.377398
 50
130.013271
 51
159.90528
  0
ARC
  5
123
  8
DAIKO
 10
20.329360999999999
 20
14.6378
 30
0.0
 40
0.8821790000000001
 50
136.19075599999999
 51
153.32379900000001
  0
ARC
  5
124
  8
DAIKO
 10
19.97133599999999
 20
14.984108000000001
 30
0.0
 40
0.384081
 50
81.332623999999996
 51
136.49908099999999
  0
ARC
  5
125
  8
DAIKO
 10
19.887281999999999
 20
14.830341000000001
 30
0.0
 40
0.55202
 50
32.824348999999998
 51
75.100918000000021
  0
ARC
  5
126
  8
DAIKO
 10
19.144667999999999
 20
14.27764
 30
0.0
 40
1.476964999999999
 50
4.188496999999999
 51
35.226702000000003
  0
ARC
  5
127
  8
DAIKO
 10
22.236750000000001
 20
14.790854
 30
0.0
 40
0.8684770000000001
 50
138.77607499999999
 51
162.332954
  0
ARC
  5
128
  8
DAIKO
 10
21.664617
 20
15.262047000000001
 30
0.0
 40
0.129627
 50
56.868426999999997
 51
128.72008600000001
  0
ARC
  5
129
  8
DAIKO
 10
21.503838999999999
 20
15.067207
 30
0.0
 40
0.381704
 50
18.129845
 51
52.639834999999998
  0
ARC
  5
12A
  8
DAIKO
 10
19.897403000000001
 20
14.417441
 30
0.0
 40
2.113850999999999
 50
359.77693799999997
 51
21.319839999999999
  0
ARC
  5
12B
  8
DAIKO
 10
25.634757
 20
14.785285
 30
0.0
 40
2.3590990000000001
 50
166.63781800000001
 51
176.689077
  0
ARC
  5
12C
  8
DAIKO
 10
23.507857000000001
 20
15.310124999999999
 30
0.0
 40
0.169563
 50
153.44039000000001
 51
174.01998
  0
ARC
  5
12D
  8
DAIKO
 10
23.382138000000001
 20
15.366720000000001
 30
0.0
 40
0.032293
 50
32.438043999999998
 51
143.473006
  0
ARC
  5
12E
  8
DAIKO
 10
23.19736
 20
15.293234
 30
0.0
 40
0.230659
 50
6.0103780000000002
 51
23.183980999999999
  0
ARC
  5
12F
  8
DAIKO
 10
20.494713000000001
 20
14.608949000000001
 30
0.0
 40
3.01641
 50
356.36149899999998
 51
13.583434
  0
ARC
  5
130
  8
DAIKO
 10
17.223651
 20
15.380084999999999
 30
0.0
 40
1.444984
 50
262.30002899999999
 51
269.111446
  0
ARC
  5
131
  8
DAIKO
 10
17.193543999999999
 20
13.044585
 30
0.0
 40
1.2381610000000001
 50
91.725331999999995
 51
100.067408
  0
ARC
  5
132
  8
DAIKO
 10
16.212185000000002
 20
-19.801155000000001
 30
0.0
 40
33.92315
 50
87.032592000000008
 51
87.529776999999996
  0
ARC
  5
133
  8
DAIKO
 10
19.122281999999998
 20
-12.132265
 30
0.0
 40
26.262685000000001
 50
92.526199000000005
 51
93.160629
  0
ARC
  5
134
  8
DAIKO
 10
19.113910000000001
 20
-11.731149
 30
0.0
 40
26.083051000000001
 50
92.577537000000007
 51
92.817639999999997
  0
ARC
  5
135
  8
DAIKO
 10
21.454094000000001
 20
106.70074
 30
0.0
 40
92.873671999999999
 50
268.04927700000002
 51
268.44957699999998
  0
ARC
  5
136
  8
DAIKO
 10
21.455348999999998
 20
106.922299
 30
0.0
 40
92.911971999999992
 50
268.035281
 51
268.49545899999998
  0
ARC
  5
137
  8
DAIKO
 10
21.454951999999999
 20
-78.727809999999991
 30
0.0
 40
92.899041999999994
 50
91.511341999999985
 51
91.968668999999991
  0
ARC
  5
138
  8
DAIKO
 10
21.453668
 20
-78.464136999999994
 30
0.0
 40
92.857024999999993
 50
91.52948099999999
 51
91.985597999999982
  0
ARC
  5
139
  8
DAIKO
 10
22.436275999999999
 20
-117.171312
 30
0.0
 40
131.576729
 50
90.923938000000007
 51
91.261763999999985
  0
ARC
  5
13A
  8
DAIKO
 10
22.425469
 20
-116.72340699999999
 30
0.0
 40
130.907071
 50
90.914826000000005
 51
91.313702000000006
  0
ARC
  5
13B
  8
DAIKO
 10
22.37754
 20
142.40316200000001
 30
0.0
 40
128.404822
 50
268.6557029999999
 51
269.09402599999999
  0
ARC
  5
13C
  8
DAIKO
 10
22.370090999999999
 20
141.78721400000001
 30
0.0
 40
127.972099
 50
268.643756
 51
269.100684
  0
ARC
  5
13D
  8
DAIKO
 10
23.428073999999999
 20
201.35151300000001
 30
0.0
 40
187.54570699999999
 50
269.15411399999999
 51
269.26272
  0
ARC
  5
13E
  8
DAIKO
 10
23.428101000000002
 20
201.536652
 30
0.0
 40
187.54756699999999
 50
269.14993800000002
 51
269.28055799999998
  0
ARC
  5
13F
  8
DAIKO
 10
23.428125000000001
 20
-173.356797
 30
0.0
 40
187.54927699999999
 50
90.702387999999999
 51
90.853745999999987
  0
ARC
  5
140
  8
DAIKO
 10
23.428556
 20
-173.12388000000001
 30
0.0
 40
187.53804299999999
 50
90.680813000000015
 51
90.859266000000019
  0
ARC
  5
141
  8
DAIKO
 10
24.010193000000001
 20
249.110321
 30
0.0
 40
235.308063
 50
269.34671100000003
 51
269.44747899999999
  0
ARC
  5
142
  8
DAIKO
 10
24.010189
 20
249.293127
 30
0.0
 40
235.30758900000001
 50
269.36093499999998
 51
269.44527699999998
  0
ARC
  5
143
  8
DAIKO
 10
21.674731999999999
 20
9.9982769999999999
 30
0.0
 40
4.186907999999999
 50
89.342842999999988
 51
93.175618999999983
  0
ARC
  5
144
  8
DAIKO
 10
24.010176000000001
 20
-220.88867099999999
 30
0.0
 40
235.30637300000001
 50
90.559643999999977
 51
90.607575999999995
  0
ARC
  5
145
  8
DAIKO
 10
22.905106
 20
16.881827999999999
 30
0.0
 40
3.2236509999999989
 50
254.47383400000001
 51
266.68219699999997
  0
ARC
  5
146
  8
DAIKO
 10
23.325151000000002
 20
11.691022999999999
 30
0.0
 40
2.2303809999999991
 50
93.932073999999986
 51
102.980784
  0
ARC
  5
147
  8
DAIKO
 10
23.315425000000001
 20
8.7034089999999988
 30
0.0
 40
5.4119320000000002
 50
91.292681000000002
 51
103.70600399999999
  0
ARC
  5
148
  8
DAIKO
 10
23.078087
 20
10.158796000000001
 30
0.0
 40
4.029761999999999
 50
91.960954000000015
 51
105.092915
  0
ARC
  5
149
  8
DAIKO
 10
24.186912
 20
-243.61748499999999
 30
0.0
 40
257.81420200000002
 50
90.218890000000016
 51
90.481120999999987
  0
ARC
  5
14A
  8
DAIKO
 10
24.16724
 20
-240.07289299999999
 30
0.0
 40
254.49123700000001
 50
90.21198600000001
 51
90.485404999999986
  0
ARC
  5
14B
  8
DAIKO
 10
24.256232000000001
 20
-0.220893
 30
0.0
 40
14.181387000000001
 50
89.875290000000007
 51
93.001988999999995
  0
ARC
  5
14C
  8
DAIKO
 10
24.283754999999999
 20
-5.5017420000000001
 30
0.0
 40
19.646557999999999
 50
89.990245999999999
 51
92.256575999999981
  0
ARC
  5
14D
  8
DAIKO
 10
24.285717000000002
 20
-267.55709100000001
 30
0.0
 40
281.75402100000002
 50
89.999718999999999
 51
90.157949000000016
  0
ARC
  5
14E
  8
DAIKO
 10
24.285924000000001
 20
-267.47249900000003
 30
0.0
 40
281.89110499999998
 50
89.999760999999992
 51
90.158718000000007
  0
LINE
  5
14F
  8
DAIKO
 10
20.803281999999999
 20
46.522390999999999
 30
0.0
 11
20.716197999999999
 21
47.241325999999987
 31
0.0
  0
LINE
  5
150
  8
DAIKO
 10
20.616337000000001
 20
48.697834999999998
 30
0.0
 11
20.635245000000001
 21
48.263371999999997
 31
0.0
  0
LINE
  5
151
  8
DAIKO
 10
27.953916
 20
48.263371999999997
 30
0.0
 11
27.97287
 21
48.698896999999988
 31
0.0
  0
LINE
  5
152
  8
DAIKO
 10
22.059419999999999
 20
0.685084
 30
0.0
 11
23.461984999999999
 21
13.580117
 31
0.0
  0
LINE
  5
153
  8
DAIKO
 10
23.294919
 20
15.065001000000001
 30
0.0
 11
21.758928999999998
 21
0.685084
 31
0.0
  0
LINE
  5
154
  8
DAIKO
 10
23.50517
 20
14.410584
 30
0.0
 11
23.749828999999998
 21
0.692166
 31
0.0
  0
LINE
  5
155
  8
DAIKO
 10
23.451007000000001
 20
0.692166
 30
0.0
 11
23.251947999999999
 21
11.619133
 31
0.0
  0
LINE
  5
156
  8
DAIKO
 10
22.491405
 20
4.6567040000000004
 30
0.0
 11
22.700662000000001
 21
0.692166
 31
0.0
  0
LINE
  5
157
  8
DAIKO
 10
0.163931
 20
0.577369
 30
0.0
 11
0.223856
 21
0.5157970000000001
 31
0.0
  0
LINE
  5
158
  8
DAIKO
 10
19.541083
 20
15.033852
 30
0.0
 11
12.194089
 21
0.66939
 31
0.0
  0
LINE
  5
159
  8
DAIKO
 10
19.806836000000001
 20
14.897321
 30
0.0
 11
12.529684
 21
0.668803
 31
0.0
  0
LINE
  5
15A
  8
DAIKO
 10
20.324224999999998
 20
14.310798999999999
 30
0.0
 11
20.489809000000001
 21
12.180027000000001
 31
0.0
  0
LINE
  5
15B
  8
DAIKO
 10
16.512083999999991
 20
14.112114
 30
0.0
 11
16.675243999999999
 21
13.160812999999999
 31
0.0
  0
LINE
  5
15C
  8
DAIKO
 10
14.795142
 20
14.817036999999999
 30
0.0
 11
0.163931
 21
0.577369
 31
0.0
  0
LINE
  5
15D
  8
DAIKO
 10
20.617688000000001
 20
14.385514000000001
 30
0.0
 11
20.726777999999999
 21
12.920863000000001
 31
0.0
  0
LINE
  5
15E
  8
DAIKO
 10
21.409233
 20
15.054423999999999
 30
0.0
 11
16.813182000000001
 21
0.685783
 31
0.0
  0
LINE
  5
15F
  8
DAIKO
 10
22.011633
 20
14.400007
 30
0.0
 11
22.392733
 21
6.6187500000000004
 31
0.0
  0
LINE
  5
160
  8
DAIKO
 10
17.935739999999999
 20
15.001144999999999
 30
0.0
 11
8.1307080000000003
 21
0.6857450000000001
 31
0.0
  0
LINE
  5
161
  8
DAIKO
 10
19.328956000000002
 20
13.962954
 30
0.0
 11
19.768788000000001
 21
9.9258980000000001
 31
0.0
  0
LINE
  5
162
  8
DAIKO
 10
16.607944
 20
14.963675
 30
0.0
 11
4.7621299999999991
 21
0.6662140000000001
 31
0.0
  0
LINE
  5
163
  8
DAIKO
 10
18.235213999999999
 20
14.346181
 30
0.0
 11
18.420794000000001
 21
12.84352
 31
0.0
  0
LINE
  5
164
  8
DAIKO
 10
15.615765
 20
14.917446
 30
0.0
 11
2.2494890000000001
 21
0.6409970000000002
 31
0.0
  0
LINE
  5
165
  8
DAIKO
 10
17.158778999999999
 20
14.255380000000001
 30
0.0
 11
17.201965000000001
 21
13.929829
 31
0.0
  0
LINE
  5
166
  8
DAIKO
 10
2.6014689999999989
 20
0.583494
 30
0.0
 11
15.824562999999999
 21
14.703336
 31
0.0
  0
LINE
  5
167
  8
DAIKO
 10
19.827162000000001
 20
0.692166
 30
0.0
 11
18.993756999999999
 21
6.5220379999999993
 31
0.0
  0
LINE
  5
168
  8
DAIKO
 10
16.81848299999999
 20
14.749565
 30
0.0
 11
5.108384
 21
0.6170170000000002
 31
0.0
  0
LINE
  5
169
  8
DAIKO
 10
21.698388999999999
 20
14.679071
 30
0.0
 11
22.189561999999999
 21
4.7166629999999987
 31
0.0
  0
LINE
  5
16A
  8
DAIKO
 10
21.685359999999999
 20
14.937127
 30
0.0
 11
17.126667000000001
 21
0.6847220000000001
 31
0.0
  0
LINE
  5
16B
  8
DAIKO
 10
19.083134000000001
 20
13.484470999999999
 30
0.0
 11
19.547419999999999
 21
9.2338330000000006
 31
0.0
  0
LINE
  5
16C
  8
DAIKO
 10
17.510739999999998
 20
13.851699999999999
 30
0.0
 11
17.792383999999998
 21
11.614884999999999
 31
0.0
  0
LINE
  5
16D
  8
DAIKO
 10
17.258472000000001
 20
13.48338
 30
0.0
 11
17.553144
 21
11.147137000000001
 31
0.0
  0
LINE
  5
16E
  8
DAIKO
 10
16.747799000000001
 20
12.737780000000001
 30
0.0
 11
17.154343999999998
 21
10.367423
 31
0.0
  0
LINE
  5
16F
  8
DAIKO
 10
22.292117000000001
 20
2.6823809999999999
 30
0.0
 11
22.401508
 21
0.692166
 31
0.0
  0
LINE
  5
170
  8
DAIKO
 10
20.791456
 20
12.142405999999999
 30
0.0
 11
21.775380999999999
 21
0.6689810000000001
 31
0.0
  0
LINE
  5
171
  8
DAIKO
 10
20.554987000000001
 20
11.403102000000001
 30
0.0
 11
21.488647
 21
0.692166
 31
0.0
  0
LINE
  5
172
  8
DAIKO
 10
19.850944999999999
 20
9.2019690000000001
 30
0.0
 11
20.847805999999999
 21
0.692166
 31
0.0
  0
LINE
  5
173
  8
DAIKO
 10
19.629621
 20
8.5100179999999988
 30
0.0
 11
20.547070999999999
 21
0.692166
 31
0.0
  0
LINE
  5
174
  8
DAIKO
 10
19.204131
 20
7.1797550000000001
 30
0.0
 11
20.128796999999999
 21
0.692166
 31
0.0
  0
LINE
  5
175
  8
DAIKO
 10
18.898831999999999
 20
7.2061529999999987
 30
0.0
 11
18.253150000000002
 21
11.859503999999999
 31
0.0
  0
LINE
  5
176
  8
DAIKO
 10
18.621399
 20
5.3578890000000001
 30
0.0
 11
19.263794999999998
 21
0.692166
 31
0.0
  0
LINE
  5
177
  8
DAIKO
 10
18.225715000000001
 20
4.1208130000000001
 30
0.0
 11
18.814415
 21
0.688408
 31
0.0
  0
LINE
  5
178
  8
DAIKO
 10
15.002564
 20
14.872266
 30
0.0
 11
0.69108
 21
0.6122040000000001
 31
0.0
  0
LINE
  5
179
  8
DAIKO
 10
1.0482139999999991
 20
0.5565500000000001
 30
0.0
 11
15.206391
 21
14.658156
 31
0.0
  0
LINE
  5
17A
  8
DAIKO
 10
16.681986999999999
 20
14.112114
 30
0.0
 11
16.808855000000001
 21
13.355886
 31
0.0
  0
LINE
  5
17B
  8
DAIKO
 10
18.3126
 20
4.3924510000000003
 30
0.0
 11
18.933969000000001
 21
0.68863
 31
0.0
  0
LINE
  5
17C
  8
DAIKO
 10
18.408396
 20
4.6919500000000003
 30
0.0
 11
18.940010999999998
 21
0.688641
 31
0.0
  0
LINE
  5
17D
  8
DAIKO
 10
17.134876999999999
 20
13.302927
 30
0.0
 11
17.495965999999999
 21
11.035344
 31
0.0
  0
LINE
  5
17E
  8
DAIKO
 10
16.880136
 20
12.930996
 30
0.0
 11
17.271713999999999
 21
10.596899000000001
 31
0.0
  0
LINE
  5
17F
  8
DAIKO
 10
18.490414999999999
 20
12.323413
 30
0.0
 11
19.109207999999999
 21
7.8638519999999996
 31
0.0
  0
LINE
  5
180
  8
DAIKO
 10
18.183107
 20
12.378806000000001
 30
0.0
 11
17.940586
 21
14.295674999999999
 31
0.0
  0
LINE
  5
181
  8
DAIKO
 10
17.86065
 20
11.092076
 30
0.0
 11
18.529413000000002
 21
6.0512379999999988
 31
0.0
  0
LINE
  5
182
  8
DAIKO
 10
17.621445999999999
 20
10.624377000000001
 30
0.0
 11
18.31642699999999
 21
5.3853799999999996
 31
0.0
  0
LINE
  5
183
  8
DAIKO
 10
17.5779
 20
10.539234
 30
0.0
 11
17.839950000000002
 21
8.9772239999999996
 31
0.0
  0
LINE
  5
184
  8
DAIKO
 10
17.354626
 20
10.102682
 30
0.0
 11
18.204647999999999
 21
5.0359239999999987
 31
0.0
  0
LINE
  5
185
  8
DAIKO
 10
17.238645000000002
 20
9.8759110000000003
 30
0.0
 11
18.116192000000002
 21
4.7593849999999991
 31
0.0
  0
LINE
  5
186
  8
DAIKO
 10
25.112214000000002
 20
13.580117
 30
0.0
 11
26.514778
 21
0.685084
 31
0.0
  0
LINE
  5
187
  8
DAIKO
 10
24.634423000000002
 20
25.313981999999999
 30
0.0
 11
24.634423000000002
 21
14.418393
 31
0.0
  0
LINE
  5
188
  8
DAIKO
 10
24.503710000000002
 20
25.347449000000001
 30
0.0
 11
24.503710000000002
 21
46.582818000000003
 31
0.0
  0
LINE
  5
189
  8
DAIKO
 10
24.070488999999998
 20
46.582818000000003
 30
0.0
 11
24.070488999999998
 21
25.347449000000001
 31
0.0
  0
LINE
  5
18A
  8
DAIKO
 10
23.939775000000001
 20
14.418393
 30
0.0
 11
23.939775000000001
 21
25.313981999999999
 31
0.0
  0
LINE
  5
18B
  8
DAIKO
 10
30.458006000000001
 20
4.7593849999999991
 30
0.0
 11
31.335553999999998
 21
9.8759110000000003
 31
0.0
  0
LINE
  5
18C
  8
DAIKO
 10
30.369551000000001
 20
5.0359239999999987
 30
0.0
 11
31.219571999999999
 21
10.102682
 31
0.0
  0
LINE
  5
18D
  8
DAIKO
 10
30.734248999999998
 20
8.9772239999999996
 30
0.0
 11
30.996297999999999
 21
10.539234
 31
0.0
  0
LINE
  5
18E
  8
DAIKO
 10
30.257771000000002
 20
5.3853799999999996
 30
0.0
 11
30.952752
 21
10.624377000000001
 31
0.0
  0
LINE
  5
18F
  8
DAIKO
 10
30.044785000000001
 20
6.0512379999999988
 30
0.0
 11
30.713547999999999
 21
11.092076
 31
0.0
  0
LINE
  5
190
  8
DAIKO
 10
30.633613
 20
14.295674999999999
 30
0.0
 11
30.391092
 21
12.378806000000001
 31
0.0
  0
LINE
  5
191
  8
DAIKO
 10
29.464990000000011
 20
7.8638519999999996
 30
0.0
 11
30.083783
 21
12.323413
 31
0.0
  0
LINE
  5
192
  8
DAIKO
 10
31.30248400000001
 20
10.596899000000001
 30
0.0
 11
31.694061999999999
 21
12.930996
 31
0.0
  0
LINE
  5
193
  8
DAIKO
 10
31.078233000000001
 20
11.035344
 30
0.0
 11
31.439322000000001
 21
13.302927
 31
0.0
  0
LINE
  5
194
  8
DAIKO
 10
29.634187000000001
 20
0.688641
 30
0.0
 11
30.165803000000011
 21
4.6919500000000003
 31
0.0
  0
LINE
  5
195
  8
DAIKO
 10
29.640229999999999
 20
0.68863
 30
0.0
 11
30.261599
 21
4.3924510000000003
 31
0.0
  0
LINE
  5
196
  8
DAIKO
 10
31.765343999999999
 20
13.355886
 30
0.0
 11
31.892212000000001
 21
14.112114
 31
0.0
  0
LINE
  5
197
  8
DAIKO
 10
31.507864000000001
 20
13.731807999999999
 30
0.0
 11
31.604172999999999
 21
14.305885999999999
 31
0.0
  0
LINE
  5
198
  8
DAIKO
 10
33.367807999999997
 20
14.658156
 30
0.0
 11
47.525984000000001
 21
0.5565500000000001
 31
0.0
  0
LINE
  5
199
  8
DAIKO
 10
47.883117999999989
 20
0.6122040000000001
 30
0.0
 11
33.57163400000001
 21
14.872266
 31
0.0
  0
LINE
  5
19A
  8
DAIKO
 10
29.75978400000001
 20
0.688408
 30
0.0
 11
30.348483000000002
 21
4.1208130000000001
 31
0.0
  0
LINE
  5
19B
  8
DAIKO
 10
29.310403999999998
 20
0.692166
 30
0.0
 11
29.952798999999999
 21
5.3578890000000001
 31
0.0
  0
LINE
  5
19C
  8
DAIKO
 10
30.321048000000001
 20
11.859503999999999
 30
0.0
 11
29.675366
 21
7.2061529999999987
 31
0.0
  0
LINE
  5
19D
  8
DAIKO
 10
28.445401
 20
0.692166
 30
0.0
 11
29.370068
 21
7.1797550000000001
 31
0.0
  0
LINE
  5
19E
  8
DAIKO
 10
28.027127
 20
0.692166
 30
0.0
 11
28.944576999999999
 21
8.5100179999999988
 31
0.0
  0
LINE
  5
19F
  8
DAIKO
 10
27.726393000000002
 20
0.692166
 30
0.0
 11
28.723254000000001
 21
9.2019690000000001
 31
0.0
  0
LINE
  5
1A0
  8
DAIKO
 10
27.085550999999999
 20
0.692166
 30
0.0
 11
28.019212
 21
11.403102000000001
 31
0.0
  0
LINE
  5
1A1
  8
DAIKO
 10
26.798818000000001
 20
0.6689810000000001
 30
0.0
 11
27.782741999999999
 21
12.142405999999999
 31
0.0
  0
LINE
  5
1A2
  8
DAIKO
 10
26.172689999999999
 20
0.692166
 30
0.0
 11
26.282081000000002
 21
2.6823809999999999
 31
0.0
  0
LINE
  5
1A3
  8
DAIKO
 10
25.873536999999999
 20
0.692166
 30
0.0
 11
26.078589000000001
 21
4.5770470000000003
 31
0.0
  0
LINE
  5
1A4
  8
DAIKO
 10
31.419854000000001
 20
10.367423
 30
0.0
 11
31.826398999999999
 21
12.737780000000001
 31
0.0
  0
LINE
  5
1A5
  8
DAIKO
 10
31.021053999999999
 20
11.147137000000001
 30
0.0
 11
31.315726999999999
 21
13.48338
 31
0.0
  0
LINE
  5
1A6
  8
DAIKO
 10
30.781815000000002
 20
11.614884999999999
 30
0.0
 11
31.063459000000002
 21
13.851699999999999
 31
0.0
  0
LINE
  5
1A7
  8
DAIKO
 10
29.026779000000001
 20
9.2338330000000006
 30
0.0
 11
29.491064000000001
 21
13.484470999999999
 31
0.0
  0
LINE
  5
1A8
  8
DAIKO
 10
31.447531999999999
 20
0.6847220000000001
 30
0.0
 11
26.888839000000001
 21
14.937127
 31
0.0
  0
LINE
  5
1A9
  8
DAIKO
 10
26.384637000000001
 20
4.7166629999999987
 30
0.0
 11
26.875809
 21
14.679071
 31
0.0
  0
LINE
  5
1AA
  8
DAIKO
 10
30.355823999999998
 20
14.884872
 30
0.0
 11
40.108406000000002
 21
0.645759
 31
0.0
  0
LINE
  5
1AB
  8
DAIKO
 10
43.465814999999999
 20
0.6170170000000002
 30
0.0
 11
31.755716
 21
14.749565
 31
0.0
  0
LINE
  5
1AC
  8
DAIKO
 10
25.322251000000001
 20
11.619133
 30
0.0
 11
25.123190999999998
 21
0.692166
 31
0.0
  0
LINE
  5
1AD
  8
DAIKO
 10
29.580441
 20
6.5220379999999993
 30
0.0
 11
28.747036999999999
 21
0.692166
 31
0.0
  0
LINE
  5
1AE
  8
DAIKO
 10
32.749634999999998
 20
14.703336
 30
0.0
 11
45.972729000000001
 21
0.583494
 31
0.0
  0
LINE
  5
1AF
  8
DAIKO
 10
31.372233000000001
 20
13.929829
 30
0.0
 11
31.415419
 21
14.255380000000001
 31
0.0
  0
LINE
  5
1B0
  8
DAIKO
 10
46.324709999999989
 20
0.6409970000000002
 30
0.0
 11
32.958434000000011
 21
14.917446
 31
0.0
  0
LINE
  5
1B1
  8
DAIKO
 10
30.153403999999998
 20
12.84352
 30
0.0
 11
30.338985000000001
 21
14.346181
 31
0.0
  0
LINE
  5
1B2
  8
DAIKO
 10
43.812069000000001
 20
0.6662140000000001
 30
0.0
 11
31.966253999999999
 21
14.963675
 31
0.0
  0
LINE
  5
1B3
  8
DAIKO
 10
28.805409999999998
 20
9.9258980000000001
 30
0.0
 11
29.245242999999999
 21
13.962954
 31
0.0
  0
LINE
  5
1B4
  8
DAIKO
 10
40.443490999999987
 20
0.6857450000000001
 30
0.0
 11
30.638458
 21
15.001144999999999
 31
0.0
  0
LINE
  5
1B5
  8
DAIKO
 10
26.181464999999999
 20
6.6187500000000004
 30
0.0
 11
26.562564999999999
 21
14.400007
 31
0.0
  0
LINE
  5
1B6
  8
DAIKO
 10
31.761016000000001
 20
0.685783
 30
0.0
 11
27.164964999999999
 21
15.054423999999999
 31
0.0
  0
LINE
  5
1B7
  8
DAIKO
 10
24.824369999999998
 20
0.692166
 30
0.0
 11
25.069029
 21
14.410584
 31
0.0
  0
LINE
  5
1B8
  8
DAIKO
 10
26.815270000000002
 20
0.685084
 30
0.0
 11
25.279278999999999
 21
15.065001000000001
 31
0.0
  0
LINE
  5
1B9
  8
DAIKO
 10
27.84742
 20
12.920863000000001
 30
0.0
 11
27.956510999999999
 21
14.385514000000001
 31
0.0
  0
LINE
  5
1BA
  8
DAIKO
 10
48.410266999999997
 20
0.577369
 30
0.0
 11
33.779057000000002
 21
14.817036999999999
 31
0.0
  0
LINE
  5
1BB
  8
DAIKO
 10
31.898955000000001
 20
13.160812999999999
 30
0.0
 11
32.062115000000013
 21
14.112114
 31
0.0
  0
LINE
  5
1BC
  8
DAIKO
 10
28.084389000000002
 20
12.180027000000001
 30
0.0
 11
28.249973000000001
 21
14.310798999999999
 31
0.0
  0
LINE
  5
1BD
  8
DAIKO
 10
36.044513999999999
 20
0.668803
 30
0.0
 11
28.767361999999999
 21
14.897321
 31
0.0
  0
LINE
  5
1BE
  8
DAIKO
 10
36.380109000000012
 20
0.66939
 30
0.0
 11
29.033114999999999
 21
15.033852
 31
0.0
  0
LINE
  5
1BF
  8
DAIKO
 10
48.350343000000002
 20
0.5157970000000001
 30
0.0
 11
48.410266999999997
 21
0.577369
 31
0.0
  0
LINE
  5
1C0
  8
DAIKO
 10
22.718539
 20
13.721577999999999
 30
0.0
 11
22.718539
 21
9.6689419999999995
 31
0.0
  0
LINE
  5
1C1
  8
DAIKO
 10
25.855658999999999
 20
9.6689419999999995
 30
0.0
 11
25.855658999999999
 21
13.721577999999999
 31
0.0
  0
LINE
  5
1C2
  8
DAIKO
 10
22.874704999999999
 20
8.1133810000000004
 30
0.0
 11
22.982416000000001
 21
8.6568140000000007
 31
0.0
  0
LINE
  5
1C3
  8
DAIKO
 10
26.607513999999998
 20
3.526078
 30
0.0
 11
26.405995000000001
 21
4.5428040000000003
 31
0.0
  0
LINE
  5
1C4
  8
DAIKO
 10
21.965479999999999
 20
3.526078
 30
0.0
 11
22.192121
 21
4.6695479999999998
 31
0.0
  0
LINE
  5
1C5
  8
DAIKO
 10
25.717191
 20
8.0180179999999996
 30
0.0
 11
25.590579000000002
 21
8.6568140000000007
 31
0.0
  0
LINE
  5
1C6
  8
DAIKO
 10
16.970025
 20
14.305885999999999
 30
0.0
 11
17.066334999999999
 21
13.731807999999999
 31
0.0
  0
LINE
  5
1C7
  8
DAIKO
 10
18.986701
 20
14.296222
 30
0.0
 11
19.019158000000001
 21
14.013410999999991
 31
0.0
  0
LINE
  5
1C8
  8
DAIKO
 10
8.4657920000000004
 20
0.645759
 30
0.0
 11
18.218375000000002
 21
14.884872
 31
0.0
  0
LINE
  5
1C9
  8
DAIKO
 10
29.555040000000002
 20
14.013410999999991
 30
0.0
 11
29.587496999999999
 21
14.296222
 31
0.0
  0
LINE
  5
1CA
  8
DAIKO
 10
27.872962000000001
 20
47.241325999999987
 30
0.0
 11
27.785879000000001
 21
46.522390999999999
 31
0.0
  0
TEXT
  5
1CB
  8
DAIKO
 10
0.0
 20
-10.0
 30
0.0
 40
3.0
  1
DPN-40659Y
  7
BIGFONT
  0
ENDSEC
  0
EOF
