  0
SECTION
  2
HEADER
  9
$ACADVER
  1
AC1009
  9
$INSBASE
 10
0.0
 20
0.0
 30
0.0
  9
$EXTMIN
 10
0.0
 20
-10.0
 30
0.0
  9
$EXTMAX
 10
28.5
 20
49.686668114784531
 30
0.0
  9
$LIMMIN
 10
0.0
 20
0.0
  9
$LIMMAX
 10
12.0
 20
9.0
  9
$ORTHOMODE
 70
     0
  9
$REGENMODE
 70
     1
  9
$FILLMODE
 70
     1
  9
$QTEXTMODE
 70
     0
  9
$MIRRTEXT
 70
     0
  9
$DRAGMODE
 70
     2
  9
$LTSCALE
 40
1.0
  9
$OSMODE
 70
    37
  9
$ATTMODE
 70
     1
  9
$TEXTSIZE
 40
0.0
  9
$TRACEWID
 40
0.05
  9
$TEXTSTYLE
  7
STANDARD
  9
$CLAYER
  8
0
  9
$CELTYPE
  6
CONTINUOUS
  9
$CECOLOR
 62
   256
  9
$DIMSCALE
 40
1.0
  9
$DIMASZ
 40
0.18
  9
$DIMEXO
 40
0.0625
  9
$DIMDLI
 40
0.38
  9
$DIMRND
 40
0.0
  9
$DIMDLE
 40
0.0
  9
$DIMEXE
 40
0.18
  9
$DIMTP
 40
0.0
  9
$DIMTM
 40
0.0
  9
$DIMTXT
 40
0.18
  9
$DIMCEN
 40
0.09
  9
$DIMTSZ
 40
0.0
  9
$DIMTOL
 70
     0
  9
$DIMLIM
 70
     0
  9
$DIMTIH
 70
     1
  9
$DIMTOH
 70
     1
  9
$DIMSE1
 70
     0
  9
$DIMSE2
 70
     0
  9
$DIMTAD
 70
     0
  9
$DIMZIN
 70
     0
  9
$DIMBLK
  1

  9
$DIMASO
 70
     1
  9
$DIMSHO
 70
     1
  9
$DIMPOST
  1

  9
$DIMAPOST
  1

  9
$DIMALT
 70
     0
  9
$DIMALTD
 70
     2
  9
$DIMALTF
 40
25.399999999999999
  9
$DIMLFAC
 40
1.0
  9
$DIMTOFL
 70
     0
  9
$DIMTVP
 40
0.0
  9
$DIMTIX
 70
     0
  9
$DIMSOXD
 70
     0
  9
$DIMSAH
 70
     0
  9
$DIMBLK1
  1

  9
$DIMBLK2
  1

  9
$DIMSTYLE
  2
STANDARD
  9
$DIMCLRD
 70
     0
  9
$DIMCLRE
 70
     0
  9
$DIMCLRT
 70
     0
  9
$DIMTFAC
 40
1.0
  9
$DIMGAP
 40
0.09
  9
$LUNITS
 70
     2
  9
$LUPREC
 70
     4
  9
$SKETCHINC
 40
0.1
  9
$FILLETRAD
 40
0.0
  9
$AUNITS
 70
     0
  9
$AUPREC
 70
     0
  9
$MENU
  1
.
  9
$ELEVATION
 40
0.0
  9
$PELEVATION
 40
0.0
  9
$THICKNESS
 40
0.0
  9
$LIMCHECK
 70
     0
  9
$BLIPMODE
 70
     0
  9
$CHAMFERA
 40
0.0
  9
$CHAMFERB
 40
0.0
  9
$SKPOLY
 70
     0
  9
$TDCREATE
 40
2458281.7342020492
  9
$TDUPDATE
 40
2458281.7575185648
  9
$TDINDWG
 40
0.0000374421
  9
$TDUSRTIMER
 40
0.0000374421
  9
$USRTIMER
 70
     1
  9
$ANGBASE
 50
0.0
  9
$ANGDIR
 70
     0
  9
$PDMODE
 70
     0
  9
$PDSIZE
 40
0.0
  9
$PLINEWID
 40
0.0
  9
$COORDS
 70
     1
  9
$SPLFRAME
 70
     0
  9
$SPLINETYPE
 70
     6
  9
$SPLINESEGS
 70
     8
  9
$ATTDIA
 70
     0
  9
$ATTREQ
 70
     1
  9
$HANDLING
 70
     1
  9
$HANDSEED
  5
158
  9
$SURFTAB1
 70
     6
  9
$SURFTAB2
 70
     6
  9
$SURFTYPE
 70
     6
  9
$SURFU
 70
     6
  9
$SURFV
 70
     6
  9
$UCSNAME
  2

  9
$UCSORG
 10
0.0
 20
0.0
 30
0.0
  9
$UCSXDIR
 10
1.0
 20
0.0
 30
0.0
  9
$UCSYDIR
 10
0.0
 20
1.0
 30
0.0
  9
$PUCSNAME
  2

  9
$PUCSORG
 10
0.0
 20
0.0
 30
0.0
  9
$PUCSXDIR
 10
1.0
 20
0.0
 30
0.0
  9
$PUCSYDIR
 10
0.0
 20
1.0
 30
0.0
  9
$USERI1
 70
     0
  9
$USERI2
 70
     0
  9
$USERI3
 70
     0
  9
$USERI4
 70
     0
  9
$USERI5
 70
     0
  9
$USERR1
 40
0.0
  9
$USERR2
 40
0.0
  9
$USERR3
 40
0.0
  9
$USERR4
 40
0.0
  9
$USERR5
 40
0.0
  9
$WORLDVIEW
 70
     1
  9
$SHADEDGE
 70
     3
  9
$SHADEDIF
 70
    70
  9
$TILEMODE
 70
     1
  9
$MAXACTVP
 70
    64
  9
$PLIMCHECK
 70
     0
  9
$PEXTMIN
 10
1.0000000000000000E+020
 20
1.0000000000000000E+020
 30
1.0000000000000000E+020
  9
$PEXTMAX
 10
-1.0000000000000000E+020
 20
-1.0000000000000000E+020
 30
-1.0000000000000000E+020
  9
$PLIMMIN
 10
0.0
 20
0.0
  9
$PLIMMAX
 10
12.0
 20
9.0
  9
$UNITMODE
 70
     0
  9
$VISRETAIN
 70
     1
  9
$PLINEGEN
 70
     0
  9
$PSLTSCALE
 70
     1
  0
ENDSEC
  0
SECTION
  2
TABLES
  0
TABLE
  2
VPORT
 70
     2
  0
VPORT
  2
*ACTIVE
 70
     0
 10
0.0
 20
0.0
 11
1.0
 21
1.0
 12
14.24981693207498
 22
19.844288944976778
 13
0.0
 23
0.0
 14
1.0
 24
1.0
 15
0.0
 25
0.0
 16
0.0
 26
0.0
 36
1.0
 17
0.0
 27
0.0
 37
0.0
 40
60.230475330811458
 41
2.05722891566265
 42
50.0
 43
0.0
 44
0.0
 50
0.0
 51
0.0
 71
     0
 72
   100
 73
     1
 74
     1
 75
     0
 76
     0
 77
     0
 78
     0
  0
ENDTAB
  0
TABLE
  2
LTYPE
 70
     8
  0
LTYPE
  2
CONTINUOUS
 70
     0
  3
Solid line
 72
    65
 73
     0
 40
0.0
  0
LTYPE
  2
CENTER_DASH_DASH
 70
     0
  3
Center_Dash_Dash
 72
    65
 73
     6
 40
22.0
 49
12.0
 49
-3.0
 49
0.5
 49
-3.0
 49
0.5
 49
-3.0
  0
LTYPE
  2
DASHED
 70
     0
  3
Dashed
 72
    65
 73
     2
 40
15.0
 49
12.0
 49
-3.0
  0
LTYPE
  2
DASH_CENTER
 70
     0
  3
Dash_Center
 72
    65
 73
     4
 40
36.0
 49
24.0
 49
-3.0
 49
6.0
 49
-3.0
  0
LTYPE
  2
DOTTED
 70
     0
  3
Dotted
 72
    65
 73
     2
 40
3.5
 49
0.5
 49
-3.0
  0
LTYPE
  2
DOT_CENTER
 70
     0
  3
Dot_Center
 72
    65
 73
     4
 40
2.0
 49
1.25
 49
-0.25
 49
0.25
 49
-0.25
  0
LTYPE
  2
LONG_DASHED
 70
     0
  3
Long_Dashed
 72
    65
 73
     2
 40
2.0
 49
1.5
 49
-0.5
  0
LTYPE
  2
PHANTOM
 70
     0
  3
Phantom
 72
    65
 73
     6
 40
2.5
 49
1.25
 49
-0.25
 49
0.25
 49
-0.25
 49
0.25
 49
-0.25
  0
ENDTAB
  0
TABLE
  2
LAYER
 70
     2
  0
LAYER
  2
0
 70
     0
 62
     7
  6
CONTINUOUS
  0
LAYER
  2
DAIKO
 70
     0
 62
     7
  6
CONTINUOUS
  0
ENDTAB
  0
TABLE
  2
STYLE
 70
     3
  0
STYLE
  2
STANDARD
 70
     0
 40
0.0
 41
1.0
 50
0.0
 71
     0
 42
0.0
  3
txt
  4

  0
STYLE
  2
BIGFONT
 70
     0
 40
1.0
 41
1.0
 50
0.0
 71
     0
 42
0.0
  3
txt
  4
bigfont
  0
STYLE
  2
CONVERTER_1
 70
     0
 40
0.0
 41
0.9
 50
0.0
 71
     0
 42
0.0
  3
txt.shx
  4

  0
ENDTAB
  0
TABLE
  2
VIEW
 70
     0
  0
ENDTAB
  0
TABLE
  2
UCS
 70
     0
  0
ENDTAB
  0
TABLE
  2
APPID
 70
     1
  0
APPID
  2
ACAD
 70
     0
  0
ENDTAB
  0
TABLE
  2
DIMSTYLE
 70
     1
  0
DIMSTYLE
  2
STANDARD
 70
     0
  3

  4

  5

  6

  7

 40
1.0
 41
0.18
 42
0.0625
 43
0.38
 44
0.18
 45
0.0
 46
0.0
 47
0.0
 48
0.0
140
0.18
141
0.09
142
0.0
143
25.399999999999999
144
1.0
145
0.0
146
1.0
147
0.09
 71
     0
 72
     0
 73
     1
 74
     1
 75
     0
 76
     0
 77
     0
 78
     0
170
     0
171
     2
172
     0
173
     0
174
     0
175
     0
176
     0
177
     0
178
     0
  0
ENDTAB
  0
ENDSEC
  0
SECTION
  2
BLOCKS
  0
BLOCK
  8
0
  2
$MODEL_SPACE
 70
     0
 10
0.0
 20
0.0
 30
0.0
  3
$MODEL_SPACE
  1

  0
ENDBLK
  5
24
  8
0
  0
BLOCK
 67
     1
  8
0
  2
$PAPER_SPACE
 70
     0
 10
0.0
 20
0.0
 30
0.0
  3
$PAPER_SPACE
  1

  0
ENDBLK
  5
20
 67
     1
  8
0
  0
ENDSEC
  0
SECTION
  2
ENTITIES
  0
ARC
  5
33
  8
DAIKO
 10
2.418825
 20
0.265976
 30
0.0
 40
0.115182
 50
90.0
 51
270.0
  0
ARC
  5
34
  8
DAIKO
 10
5.2746879999999994
 20
6.7196789999999993
 30
0.0
 40
0.8694739999999999
 50
336.61051900000001
 51
350.64715899999999
  0
ARC
  5
35
  8
DAIKO
 10
3.9490309999999988
 20
6.7259589999999987
 30
0.0
 40
0.879476
 50
189.66031599999999
 51
197.31525999999999
  0
ARC
  5
36
  8
DAIKO
 10
3.914428
 20
6.6967109999999987
 30
0.0
 40
0.834919
 50
216.037578
 51
227.19738399999989
  0
ARC
  5
37
  8
DAIKO
 10
5.302956
 20
6.6994819999999997
 30
0.0
 40
0.834919
 50
309.20124399999997
 51
318.57235900000001
  0
ARC
  5
38
  8
DAIKO
 10
5.3082190000000002
 20
6.710583999999999
 30
0.0
 40
0.834919
 50
350.88903500000009
 51
356.25897500000002
  0
ARC
  5
39
  8
DAIKO
 10
2.7170000000000001
 20
5.7547169999999994
 30
0.0
 40
2.303647999999999
 50
303.63417700000002
 51
318.24153999999999
  0
ARC
  5
3A
  8
DAIKO
 10
6.497628999999999
 20
5.7547169999999994
 30
0.0
 40
2.303647999999999
 50
221.75846000000001
 51
236.36582300000001
  0
ARC
  5
3B
  8
DAIKO
 10
3.906410999999999
 20
6.710583999999999
 30
0.0
 40
0.834919
 50
183.74102500000001
 51
189.11096499999999
  0
ARC
  5
3C
  8
DAIKO
 10
4.6073589999999989
 20
4.0670849999999987
 30
0.0
 40
0.230365
 50
41.758459999999992
 51
60.012560999999991
  0
ARC
  5
3D
  8
DAIKO
 10
4.6072699999999989
 20
4.0670849999999987
 30
0.0
 40
0.230365
 50
119.98743899999999
 51
138.24153999999999
  0
ARC
  5
3E
  8
DAIKO
 10
5.3318529999999988
 20
9.7877200000000002
 30
0.0
 40
0.13857
 50
277.54986200000002
 51
82.450137999999995
  0
ARC
  5
3F
  8
DAIKO
 10
3.8827519999999991
 20
9.7877200000000002
 30
0.0
 40
0.13857
 50
97.54986199999999
 51
262.45013799999998
  0
ARC
  5
40
  8
DAIKO
 10
7.2949039999999981
 20
4.9116660000000003
 30
0.0
 40
0.767883
 50
345.812074
 51
38.581287000000003
  0
ARC
  5
41
  8
DAIKO
 10
1.919724999999999
 20
4.9116660000000003
 30
0.0
 40
0.767883
 50
141.418713
 51
194.187926
  0
ARC
  5
42
  8
DAIKO
 10
3.8827519999999991
 20
24.024918
 30
0.0
 40
0.13857
 50
97.54986199999999
 51
262.45013799999998
  0
ARC
  5
43
  8
DAIKO
 10
5.3318529999999988
 20
24.024918
 30
0.0
 40
0.13857
 50
277.54986200000002
 51
82.450137999999995
  0
ARC
  5
44
  8
DAIKO
 10
7.2949039999999981
 20
4.9116660000000003
 30
0.0
 40
0.5375180000000001
 50
345.83775700000001
 51
38.581287000000003
  0
ARC
  5
45
  8
DAIKO
 10
1.919724999999999
 20
4.9116660000000003
 30
0.0
 40
0.5375180000000001
 50
141.418713
 51
194.16224299999999
  0
ARC
  5
46
  8
DAIKO
 10
5.2600150000000001
 20
9.8128299999999982
 30
0.0
 40
0.4607300000000001
 50
191.14242400000001
 51
201.875
  0
ARC
  5
47
  8
DAIKO
 10
3.954615
 20
9.8128299999999982
 30
0.0
 40
0.4607300000000001
 50
338.125
 51
348.85757599999999
  0
ARC
  5
48
  8
DAIKO
 10
6.795780999999999
 20
0.265976
 30
0.0
 40
0.115182
 50
270.0
 51
90.0
  0
ARC
  5
49
  8
DAIKO
 10
0.181434
 20
44.94072899999999
 30
0.0
 40
0.202887
 50
115.270214
 51
153.410169
  0
ARC
  5
4A
  8
DAIKO
 10
0.887193
 20
42.972306000000003
 30
0.0
 40
2.293140999999999
 50
99.386267000000018
 51
110.21467199999999
  0
ARC
  5
4B
  8
DAIKO
 10
3.0928239999999998
 20
28.731798999999999
 30
0.0
 40
16.703341999999999
 50
92.603525000000005
 51
98.884159999999994
  0
ARC
  5
4C
  8
DAIKO
 10
4.6037929999999996
 20
2.2495689999999988
 30
0.0
 40
43.227958000000001
 50
86.784745000000001
 51
93.009731000000002
  0
ARC
  5
4D
  8
DAIKO
 10
6.428164999999999
 20
31.790825999999999
 30
0.0
 40
13.631873000000001
 50
80.019393999999991
 51
87.476631999999995
  0
ARC
  5
4E
  8
DAIKO
 10
7.552700999999999
 20
40.019638999999991
 30
0.0
 40
5.3422039999999988
 50
73.085313999999997
 51
76.599725000000007
  0
ARC
  5
4F
  8
DAIKO
 10
9.0790000000000006
 20
44.992407
 30
0.0
 40
0.141133
 50
16.098071999999998
 51
78.556269
  0
ARC
  5
50
  8
DAIKO
 10
8.8829039999999981
 20
44.167490000000001
 30
0.0
 40
0.479688
 50
49.971229999999998
 51
80.164942000000025
  0
ARC
  5
51
  8
DAIKO
 10
7.570659
 20
38.837712000000003
 30
0.0
 40
5.967560999999999
 50
76.489307999999994
 51
83.701959000000002
  0
ARC
  5
52
  8
DAIKO
 10
5.211373
 20
16.778465000000001
 30
0.0
 40
28.152587
 50
83.854311999999993
 51
89.359779000000003
  0
ARC
  5
53
  8
DAIKO
 10
4.5777010000000002
 20
2.6971539999999998
 30
0.0
 40
42.242784999999991
 50
88.713750000000005
 51
93.101910999999987
  0
ARC
  5
54
  8
DAIKO
 10
2.8549720000000001
 20
30.275812999999999
 30
0.0
 40
14.613087999999999
 50
92.208448000000004
 51
98.710688999999988
  0
ARC
  5
55
  8
DAIKO
 10
0.9425969999999999
 20
42.203848999999991
 30
0.0
 40
2.5344029999999989
 50
96.814222000000001
 51
108.21482399999999
  0
ARC
  5
56
  8
DAIKO
 10
0.238492
 20
44.320557999999991
 30
0.0
 40
0.303755
 50
106.86004200000001
 51
134.945145
  0
ARC
  5
57
  8
DAIKO
 10
0.049396
 20
44.493236999999993
 30
0.0
 40
0.049396
 50
121.060935
 51
243.49756400000001
  0
ARC
  5
58
  8
DAIKO
 10
0.349866
 20
44.861184000000002
 30
0.0
 40
0.523339
 50
231.95641900000001
 51
259.77087599999999
  0
ARC
  5
59
  8
DAIKO
 10
2.538923
 20
55.619965000000001
 30
0.0
 40
11.502439000000001
 50
258.55705
 51
266.54511000000002
  0
ARC
  5
5A
  8
DAIKO
 10
4.5503039999999988
 20
85.434232999999978
 30
0.0
 40
41.384270000000001
 50
266.25292999999999
 51
269.876915
  0
ARC
  5
5B
  8
DAIKO
 10
4.7154870000000004
 20
84.735281999999998
 30
0.0
 40
40.685240999999998
 50
270.05315100000001
 51
273.07354400000003
  0
ARC
  5
5C
  8
DAIKO
 10
6.6655309999999988
 20
55.379962999999996
 30
0.0
 40
11.273773
 50
271.17614600000002
 51
280.66739000000001
  0
ARC
  5
5D
  8
DAIKO
 10
8.6334610000000005
 20
45.464073999999989
 30
0.0
 40
1.169119
 50
275.83846999999997
 51
294.10397599999999
  0
ARC
  5
5E
  8
DAIKO
 10
4.1106369999999997
 20
44.486224
 30
0.0
 40
0.034078
 50
114.397948
 51
166.769847
  0
ARC
  5
5F
  8
DAIKO
 10
4.3489769999999988
 20
43.871896
 30
0.0
 40
0.692969
 50
95.992581000000001
 51
111.36165099999999
  0
ARC
  5
60
  8
DAIKO
 10
4.5992739999999994
 20
42.032426000000001
 30
0.0
 40
2.5491540000000001
 50
79.888607999999991
 51
97.271345999999994
  0
ARC
  5
61
  8
DAIKO
 10
5.0077669999999994
 20
44.31758
 30
0.0
 40
0.227778
 50
59.480215999999999
 51
80.130479000000008
  0
ARC
  5
62
  8
DAIKO
 10
5.1092829999999996
 20
44.489356999999991
 30
0.0
 40
0.028247
 50
9.5072850000000013
 51
59.918018999999987
  0
ARC
  5
63
  8
DAIKO
 10
4.6870779999999987
 20
45.961973
 30
0.0
 40
1.9005810000000001
 50
271.99460299999998
 51
279.14861100000002
  0
ARC
  5
64
  8
DAIKO
 10
4.9359459999999986
 20
44.529887000000002
 30
0.0
 40
0.447506
 50
276.84261099999998
 51
291.81797999999998
  0
ARC
  5
65
  8
DAIKO
 10
5.0839579999999991
 20
44.176495999999993
 30
0.0
 40
0.064703
 50
286.43595800000003
 51
316.62293699999998
  0
ARC
  5
66
  8
DAIKO
 10
5.1201059999999989
 20
44.145235
 30
0.0
 40
0.01709
 50
309.55084199999999
 51
55.316399999999987
  0
ARC
  5
67
  8
DAIKO
 10
5.0525080000000004
 20
44.061446999999987
 30
0.0
 40
0.124706
 50
51.681360999999988
 51
72.551057
  0
ARC
  5
68
  8
DAIKO
 10
4.8028269999999988
 20
43.199528999999991
 30
0.0
 40
1.022030999999999
 50
73.686858000000001
 51
85.707941000000019
  0
ARC
  5
69
  8
DAIKO
 10
4.6107649999999989
 20
41.301757999999992
 30
0.0
 40
2.9292729999999989
 50
84.739827999999989
 51
96.780962000000017
  0
ARC
  5
6A
  8
DAIKO
 10
4.3183739999999986
 20
43.621082000000001
 30
0.0
 40
0.591878
 50
95.184087000000005
 51
109.305621
  0
ARC
  5
6B
  8
DAIKO
 10
4.143669
 20
44.094599000000002
 30
0.0
 40
0.087626
 50
103.84841900000001
 51
130.71200999999999
  0
ARC
  5
6C
  8
DAIKO
 10
4.0973579999999989
 20
44.14479
 30
0.0
 40
0.019519
 50
123.750366
 51
242.25598400000001
  0
ARC
  5
6D
  8
DAIKO
 10
4.2287749999999988
 20
44.373063000000002
 30
0.0
 40
0.282904
 50
240.22166100000001
 51
259.46198700000002
  0
ARC
  5
6E
  8
DAIKO
 10
4.4724129999999986
 20
45.534537999999991
 30
0.0
 40
1.4695979999999991
 50
258.40501899999998
 51
265.09116
  0
ARC
  5
6F
  8
DAIKO
 10
4.5878389999999989
 20
46.774630000000002
 30
0.0
 40
2.715033
 50
264.90361200000001
 51
267.33079800000002
  0
ARC
  5
70
  8
DAIKO
 10
4.4739779999999989
 20
44.144196999999991
 30
0.0
 40
0.012579
 50
138.303876
 51
178.96874800000001
  0
ARC
  5
71
  8
DAIKO
 10
4.5019660000000004
 20
44.111803999999999
 30
0.0
 40
0.055306
 50
111.41506200000001
 51
132.52378100000001
  0
ARC
  5
72
  8
DAIKO
 10
4.579102999999999
 20
43.877443
 30
0.0
 40
0.301965
 50
94.581126999999995
 51
108.803417
  0
ARC
  5
73
  8
DAIKO
 10
4.6069680000000002
 20
43.623676000000003
 30
0.0
 40
0.557198
 50
82.474221999999997
 51
95.353168999999994
  0
ARC
  5
74
  8
DAIKO
 10
4.6612640000000001
 20
43.985225
 30
0.0
 40
0.191761
 50
66.376322999999985
 51
84.409153999999987
  0
ARC
  5
75
  8
DAIKO
 10
4.7282449999999994
 20
44.134498999999991
 30
0.0
 40
0.028198
 50
33.308647999999998
 51
69.526923999999994
  0
ARC
  5
76
  8
DAIKO
 10
4.7416410000000004
 20
44.144390000000001
 30
0.0
 40
0.011607
 50
3.242642
 51
28.811620000000001
  0
ARC
  5
77
  8
DAIKO
 10
1.614206
 20
49.196393
 30
0.0
 40
0.205907
 50
97.556360999999981
 51
138.924679
  0
ARC
  5
78
  8
DAIKO
 10
2.6563310000000002
 20
43.766252999999999
 30
0.0
 40
5.7348119999999998
 50
93.810784999999996
 51
100.74514000000001
  0
ARC
  5
79
  8
DAIKO
 10
4.5516059999999987
 20
20.533245000000001
 30
0.0
 40
29.044487
 50
84.325131999999996
 51
94.495283000000001
  0
ARC
  5
7A
  8
DAIKO
 10
7.3439199999999989
 20
48.362383000000001
 30
0.0
 40
1.0759590000000001
 50
71.305499999999995
 51
85.752036000000004
  0
ARC
  5
7B
  8
DAIKO
 10
7.6670929999999986
 20
49.282803000000001
 30
0.0
 40
0.101128
 50
28.905442000000001
 51
77.611461000000006
  0
ARC
  5
7C
  8
DAIKO
 10
5.9711589999999992
 20
49.468612
 30
0.0
 40
0.130431
 50
31.822151000000002
 51
85.792461000000003
  0
ARC
  5
7D
  8
DAIKO
 10
4.7391319999999988
 20
40.884762000000002
 30
0.0
 40
8.8019379999999998
 50
81.890842000000006
 51
89.844015999999996
  0
ARC
  5
7E
  8
DAIKO
 10
4.4384559999999986
 20
41.391198999999993
 30
0.0
 40
8.3018190000000001
 50
87.758897999999988
 51
97.416720000000012
  0
ARC
  5
7F
  8
DAIKO
 10
3.393324999999999
 20
49.021240999999989
 30
0.0
 40
0.602903
 50
92.520071000000002
 51
112.18414300000001
  0
ARC
  5
80
  8
DAIKO
 10
3.1624469999999998
 20
49.547948999999988
 30
0.0
 40
0.03173
 50
84.156095999999991
 51
199.084846
  0
ARC
  5
81
  8
DAIKO
 10
4.6081789999999989
 20
19.898637999999998
 30
0.0
 40
4.327710999999999
 50
80.129272
 51
99.911361999999997
  0
ARC
  5
82
  8
DAIKO
 10
3.8925449999999988
 20
23.953029000000001
 30
0.0
 40
0.071214
 50
229.50307900000001
 51
258.05174099999999
  0
ARC
  5
83
  8
DAIKO
 10
3.8554330000000001
 20
23.909901000000001
 30
0.0
 40
0.014319
 50
121.060491
 51
230.36168699999999
  0
ARC
  5
84
  8
DAIKO
 10
3.9169099999999988
 20
23.817260999999998
 30
0.0
 40
0.125489
 50
100.355321
 51
123.282623
  0
ARC
  5
85
  8
DAIKO
 10
4.2847669999999987
 20
22.125475999999999
 30
0.0
 40
1.8567400000000001
 50
93.489031999999995
 51
102.138086
  0
ARC
  5
86
  8
DAIKO
 10
4.5952849999999987
 20
18.238181000000001
 30
0.0
 40
5.7561949999999991
 50
83.787909999999997
 51
94.219375999999997
  0
ARC
  5
87
  8
DAIKO
 10
5.132509999999999
 20
23.251804
 30
0.0
 40
0.7139290000000002
 50
72.254582999999997
 51
83.109830000000002
  0
ARC
  5
88
  8
DAIKO
 10
5.2417400000000001
 20
24.305569999999999
 30
0.0
 40
0.412382
 50
271.77341200000001
 51
279.77914299999998
  0
ARC
  5
89
  8
DAIKO
 10
5.335121
 20
23.886914000000001
 30
0.0
 40
0.047287
 50
32.190074000000003
 51
71.522906000000006
  0
ARC
  5
8A
  8
DAIKO
 10
5.3434229999999996
 20
23.920660999999999
 30
0.0
 40
0.03285
 50
290.74466699999999
 51
344.904223
  0
ARC
  5
8B
  8
DAIKO
 10
5.2960979999999998
 20
24.024628
 30
0.0
 40
0.147028
 50
286.0727
 51
293.64172500000001
  0
ARC
  5
8C
  8
DAIKO
 10
5.3007089999999986
 20
23.976393999999999
 30
0.0
 40
0.078005
 50
278.16221000000002
 51
294.13146399999999
  0
ARC
  5
8D
  8
DAIKO
 10
5.328786
 20
23.913292999999999
 30
0.0
 40
0.00894
 50
295.24550099999999
 51
328.48619500000001
  0
ARC
  5
8E
  8
DAIKO
 10
5.3345149999999997
 20
23.909965
 30
0.0
 40
0.002322
 50
324.60886099999999
 51
41.405602000000002
  0
ARC
  5
8F
  8
DAIKO
 10
5.3272830000000004
 20
23.904805
 30
0.0
 40
0.011196
 50
36.726452000000002
 51
68.532894999999996
  0
ARC
  5
90
  8
DAIKO
 10
5.286268999999999
 20
23.790614000000001
 30
0.0
 40
0.132525
 50
70.098641999999984
 51
80.927447999999998
  0
ARC
  5
91
  8
DAIKO
 10
5.2333059999999989
 20
23.421776000000001
 30
0.0
 40
0.5051350000000001
 50
81.592157
 51
87.595071999999988
  0
ARC
  5
92
  8
DAIKO
 10
5.2451679999999987
 20
23.925398000000001
 30
0.0
 40
0.011656
 50
36.794253999999988
 51
73.360643999999994
  0
ARC
  5
93
  8
DAIKO
 10
5.2067309999999987
 20
23.818473000000001
 30
0.0
 40
0.125264
 50
70.519187000000002
 51
80.380775999999983
  0
ARC
  5
94
  8
DAIKO
 10
5.1386409999999998
 20
23.302447000000001
 30
0.0
 40
0.6456960000000001
 50
82.075372000000002
 51
96.48502400000001
  0
ARC
  5
95
  8
DAIKO
 10
5.0724640000000001
 20
23.830223
 30
0.0
 40
0.113988
 50
93.395026999999999
 51
112.061305
  0
ARC
  5
96
  8
DAIKO
 10
5.0197869999999991
 20
23.946027000000001
 30
0.0
 40
0.010754
 50
23.487985999999999
 51
79.702742999999984
  0
ARC
  5
97
  8
DAIKO
 10
4.9648830000000004
 20
23.770477
 30
0.0
 40
0.194612
 50
73.022456999999989
 51
85.378422
  0
ARC
  5
98
  8
DAIKO
 10
4.915011999999999
 20
23.331980999999999
 30
0.0
 40
0.635863
 50
84.082757999999998
 51
97.370337000000006
  0
ARC
  5
99
  8
DAIKO
 10
4.8418219999999996
 20
23.865762
 30
0.0
 40
0.09719
 50
94.946419999999975
 51
112.94017100000001
  0
ARC
  5
9A
  8
DAIKO
 10
4.8048260000000003
 20
23.949771999999999
 30
0.0
 40
0.005565
 50
99.152026000000006
 51
174.61492200000001
  0
ARC
  5
9B
  8
DAIKO
 10
4.7158540000000002
 20
23.946293000000001
 30
0.0
 40
0.006892
 50
15.442988
 51
60.17911500000001
  0
ARC
  5
9C
  8
DAIKO
 10
4.68527
 20
23.878084000000001
 30
0.0
 40
0.081614
 50
65.371158999999992
 51
78.140265999999997
  0
ARC
  5
9D
  8
DAIKO
 10
4.6071519999999992
 20
23.383890000000001
 30
0.0
 40
0.581855
 50
80.614068000000003
 51
99.250130000000013
  0
ARC
  5
9E
  8
DAIKO
 10
4.5252400000000002
 20
23.889683000000002
 30
0.0
 40
0.069474
 50
99.626867000000004
 51
114.379958
  0
ARC
  5
9F
  8
DAIKO
 10
4.498060999999999
 20
23.947140999999998
 30
0.0
 40
0.006011
 50
104.440478
 51
170.504098
  0
ARC
  5
A0
  8
DAIKO
 10
4.3001069999999988
 20
23.565134
 30
0.0
 40
0.402023
 50
73.346481000000011
 51
106.64435899999999
  0
ARC
  5
A1
  8
DAIKO
 10
4.0782660000000002
 20
23.563987999999998
 30
0.0
 40
0.386878
 50
73.992164000000002
 51
107.783838
  0
ARC
  5
A2
  8
DAIKO
 10
3.9632399999999999
 20
23.611836
 30
0.0
 40
0.314645
 50
90.571108999999964
 51
102.613935
  0
ARC
  5
A3
  8
DAIKO
 10
3.9006210000000001
 20
23.881049999999998
 30
0.0
 40
0.038324
 50
99.149804000000003
 51
122.442654
  0
ARC
  5
A4
  8
DAIKO
 10
3.8815400000000002
 20
23.910034
 30
0.0
 40
0.00367
 50
113.74824700000001
 51
233.10968299999999
  0
ARC
  5
A5
  8
DAIKO
 10
3.8986909999999999
 20
23.935433
 30
0.0
 40
0.034314
 50
235.66622899999999
 51
253.12973199999999
  0
ARC
  5
A6
  8
DAIKO
 10
3.9455269999999989
 20
24.111466
 30
0.0
 40
0.216454
 50
254.78828300000001
 51
264.64867500000008
  0
ARC
  5
A7
  8
DAIKO
 10
3.985541
 20
24.473856999999999
 30
0.0
 40
0.581028
 50
264.05284
 51
267.49075800000003
  0
ARC
  5
A8
  8
DAIKO
 10
4.5832019999999991
 20
6.305413999999999
 30
0.0
 40
3.690326999999999
 50
77.667918999999998
 51
101.22956600000001
  0
ARC
  5
A9
  8
DAIKO
 10
4.599704
 20
5.9135470000000003
 30
0.0
 40
3.8449119999999999
 50
78.422186999999994
 51
101.28949900000001
  0
ARC
  5
AA
  8
DAIKO
 10
3.8558239999999988
 20
9.6725189999999994
 30
0.0
 40
0.014529
 50
127.397929
 51
235.365117
  0
ARC
  5
AB
  8
DAIKO
 10
3.9028010000000002
 20
9.7331810000000001
 30
0.0
 40
0.091237
 50
232.74190400000001
 51
245.20942400000001
  0
ARC
  5
AC
  8
DAIKO
 10
3.9582419999999989
 20
9.4612369999999988
 30
0.0
 40
0.227553
 50
85.012369000000007
 51
110.554543
  0
ARC
  5
AD
  8
DAIKO
 10
3.978130999999999
 20
9.6939929999999972
 30
0.0
 40
0.006065
 50
168.68878100000001
 51
269.00180899999998
  0
ARC
  5
AE
  8
DAIKO
 10
3.9939709999999988
 20
9.6680820000000001
 30
0.0
 40
0.034773
 50
104.17395
 51
128.797741
  0
ARC
  5
AF
  8
DAIKO
 10
4.0856009999999996
 20
9.2352570000000007
 30
0.0
 40
0.477166
 50
76.892679999999999
 51
102.11490499999999
  0
ARC
  5
B0
  8
DAIKO
 10
4.1916109999999991
 20
9.6881989999999991
 30
0.0
 40
0.011996
 50
32.294229999999999
 51
79.437207000000001
  0
ARC
  5
B1
  8
DAIKO
 10
4.1840279999999987
 20
9.7055399999999992
 30
0.0
 40
0.020825
 50
275.034066
 51
328.33300100000002
  0
ARC
  5
B2
  8
DAIKO
 10
4.2078699999999989
 20
9.7154579999999982
 30
0.0
 40
0.008602
 50
185.05419800000001
 51
258.844224
  0
ARC
  5
B3
  8
DAIKO
 10
4.2177600000000002
 20
9.6937410000000011
 30
0.0
 40
0.027928
 50
104.884772
 51
131.36856399999999
  0
ARC
  5
B4
  8
DAIKO
 10
4.317844
 20
9.1319800000000004
 30
0.0
 40
0.598442
 50
81.465106999999975
 51
100.32483999999999
  0
ARC
  5
B5
  8
DAIKO
 10
4.406356999999999
 20
9.6950299999999991
 30
0.0
 40
0.028767
 50
37.881681
 51
89.398443
  0
ARC
  5
B6
  8
DAIKO
 10
4.3950089999999991
 20
9.759250999999999
 30
0.0
 40
0.057682
 50
276.76901499999991
 51
306.18262700000002
  0
ARC
  5
B7
  8
DAIKO
 10
4.4953129999999986
 20
9.7109330000000007
 30
0.0
 40
0.003163
 50
127.89400500000001
 51
232.38370000000009
  0
ARC
  5
B8
  8
DAIKO
 10
4.5113940000000001
 20
9.6893890000000003
 30
0.0
 40
0.030046
 50
106.321675
 51
126.860759
  0
ARC
  5
B9
  8
DAIKO
 10
4.5662979999999997
 20
9.4782989999999998
 30
0.0
 40
0.248148
 50
93.683869000000001
 51
104.79035
  0
ARC
  5
BA
  8
DAIKO
 10
4.6064369999999997
 20
9.1650410000000004
 30
0.0
 40
0.5636890000000001
 50
79.875179000000003
 51
95.709932000000009
  0
ARC
  5
BB
  8
DAIKO
 10
4.7043660000000003
 20
9.6948089999999993
 30
0.0
 40
0.025171
 50
48.5623
 51
87.349695999999994
  0
ARC
  5
BC
  8
DAIKO
 10
4.718337
 20
9.7108030000000003
 30
0.0
 40
0.003936
 50
292.28197799999998
 51
46.939155999999997
  0
ARC
  5
BD
  8
DAIKO
 10
4.679314999999999
 20
9.7971360000000001
 30
0.0
 40
0.098676
 50
278.284313
 51
294.24109900000002
  0
ARC
  5
BE
  8
DAIKO
 10
4.6081769999999986
 20
10.254595999999999
 30
0.0
 40
0.5616300000000001
 50
260.08914199999998
 51
278.74159100000003
  0
ARC
  5
BF
  8
DAIKO
 10
4.512516999999999
 20
9.7306670000000004
 30
0.0
 40
0.029337
 50
229.29200399999999
 51
268.03658899999999
  0
ARC
  5
C0
  8
DAIKO
 10
4.8237579999999989
 20
9.7707339999999991
 30
0.0
 40
0.069632
 50
236.76711700000001
 51
260.96432499999997
  0
ARC
  5
C1
  8
DAIKO
 10
4.816832999999999
 20
9.6784610000000004
 30
0.0
 40
0.046191
 50
101.061802
 51
132.54934399999999
  0
ARC
  5
C2
  8
DAIKO
 10
4.8975400000000002
 20
9.1810530000000004
 30
0.0
 40
0.550083
 50
78.838720999999993
 51
99.371110000000016
  0
ARC
  5
C3
  8
DAIKO
 10
5.003010999999999
 20
9.7052740000000011
 30
0.0
 40
0.01549
 50
37.480696000000002
 51
86.265967000000003
  0
ARC
  5
C4
  8
DAIKO
 10
5.0078409999999991
 20
9.7144639999999995
 30
0.0
 40
0.007467
 50
274.2919710000001
 51
1.808652999999999
  0
ARC
  5
C5
  8
DAIKO
 10
5.0284800000000001
 20
9.7032600000000002
 30
0.0
 40
0.018466
 50
210.81830299999999
 51
270.839405
  0
ARC
  5
C6
  8
DAIKO
 10
5.0240960000000001
 20
9.6871429999999972
 30
0.0
 40
0.013265
 50
104.40861099999999
 51
149.88272000000001
  0
ARC
  5
C7
  8
DAIKO
 10
5.1314859999999989
 20
9.1407100000000003
 30
0.0
 40
0.57013
 50
81.001434000000003
 51
101.19509600000001
  0
ARC
  5
C8
  8
DAIKO
 10
5.2246379999999988
 20
9.6821169999999999
 30
0.0
 40
0.022067
 50
19.858439000000001
 51
100.38587099999999
  0
ARC
  5
C9
  8
DAIKO
 10
5.25312
 20
9.4148359999999993
 30
0.0
 40
0.274887
 50
74.188082999999992
 51
91.610784999999979
  0
ARC
  5
CA
  8
DAIKO
 10
5.32857
 20
9.6709540000000001
 30
0.0
 40
0.008385
 50
10.897356
 51
93.755506000000025
  0
ARC
  5
CB
  8
DAIKO
 10
5.3377919999999994
 20
9.6906920000000003
 30
0.0
 40
0.042164
 50
286.91525899999999
 51
330.56730399999998
  0
ARC
  5
CC
  8
DAIKO
 10
5.3673400000000004
 20
9.6733829999999994
 30
0.0
 40
0.007943
 50
334.57540799999998
 51
59.493728000000011
  0
ARC
  5
CD
  8
DAIKO
 10
4.5646409999999991
 20
5.8721959999999989
 30
0.0
 40
3.0932349999999991
 50
91.343186000000003
 51
97.482607000000016
  0
ARC
  5
CE
  8
DAIKO
 10
4.7075309999999986
 20
6.6180949999999994
 30
0.0
 40
2.3465340000000001
 50
81.539213999999987
 51
89.634556000000003
  0
ARC
  5
CF
  8
DAIKO
 10
4.0005680000000003
 20
2.231395
 30
0.0
 40
5.7769979999999999
 50
93.702713999999986
 51
97.116395000000026
  0
ARC
  5
D0
  8
DAIKO
 10
4.5935809999999986
 20
-9.5270489999999999
 30
0.0
 40
17.551293999999999
 50
90.331178000000008
 51
92.464458999999991
  0
ARC
  5
D1
  8
DAIKO
 10
4.8548900000000001
 20
2.4286490000000001
 30
0.0
 40
5.596868999999999
 50
84.963328000000018
 51
91.355443999999977
  0
ARC
  5
D2
  8
DAIKO
 10
5.3403029999999987
 20
3.6183580000000002
 30
0.0
 40
4.3853239999999989
 50
82.275634999999994
 51
87.205993000000007
  0
ARC
  5
D3
  8
DAIKO
 10
2.4394759999999991
 20
5.041148999999999
 30
0.0
 40
0.6098020000000001
 50
146.53442100000001
 51
192.35286500000001
  0
ARC
  5
D4
  8
DAIKO
 10
2.4619260000000001
 20
5.0408850000000003
 30
0.0
 40
0.8626669999999999
 50
146.17648800000001
 51
192.51180400000001
  0
ARC
  5
D5
  8
DAIKO
 10
4.2219150000000001
 20
5.3859050000000002
 30
0.0
 40
1.3998079999999991
 50
159.75775999999999
 51
187.502047
  0
ARC
  5
D6
  8
DAIKO
 10
4.652842999999999
 20
5.3851919999999991
 30
0.0
 40
1.6003389999999991
 50
162.35721599999999
 51
186.53185500000001
  0
ARC
  5
D7
  8
DAIKO
 10
3.9211659999999999
 20
7.6844349999999997
 30
0.0
 40
1.729754999999999
 50
253.073016
 51
270.02372700000001
  0
ARC
  5
D8
  8
DAIKO
 10
3.439773999999999
 20
6.0974209999999989
 30
0.0
 40
0.071354
 50
221.96699599999999
 51
251.84634500000001
  0
ARC
  5
D9
  8
DAIKO
 10
3.4094989999999989
 20
6.0649239999999986
 30
0.0
 40
0.027395
 50
96.874864999999986
 51
213.74540999999999
  0
ARC
  5
DA
  8
DAIKO
 10
3.748581999999999
 20
5.0977879999999987
 30
0.0
 40
1.0516229999999991
 50
97.940409000000002
 51
108.99922100000001
  0
ARC
  5
DB
  8
DAIKO
 10
4.5492280000000003
 20
-1.953822999999999
 30
0.0
 40
8.148244
 50
90.401478999999995
 51
96.666434999999993
  0
ARC
  5
DC
  8
DAIKO
 10
4.4092070000000003
 20
2.7052119999999991
 30
0.0
 40
3.4034179999999989
 50
88.603831999999997
 51
97.342157
  0
ARC
  5
DD
  8
DAIKO
 10
3.967185999999999
 20
6.0098029999999989
 30
0.0
 40
0.071274
 50
84.296198000000004
 51
131.26485
  0
ARC
  5
DE
  8
DAIKO
 10
4.8724930000000004
 20
1.496626
 30
0.0
 40
4.6999889999999986
 50
79.776735000000002
 51
91.829143999999985
  0
ARC
  5
DF
  8
DAIKO
 10
4.8650219999999988
 20
4.2257569999999989
 30
0.0
 40
1.8872509999999989
 50
76.848093999999975
 51
94.331080999999998
  0
ARC
  5
E0
  8
DAIKO
 10
5.2705650000000004
 20
7.8566149999999988
 30
0.0
 40
1.902061999999999
 50
270.66823199999999
 51
285.854648
  0
ARC
  5
E1
  8
DAIKO
 10
4.5645459999999991
 20
5.159173
 30
0.0
 40
1.597628
 50
353.44732699999997
 51
17.663602000000001
  0
ARC
  5
E2
  8
DAIKO
 10
4.9834800000000001
 20
5.1576399999999989
 30
0.0
 40
1.409135
 50
351.51264500000002
 51
20.188122
  0
ARC
  5
E3
  8
DAIKO
 10
6.7740589999999994
 20
5.0409449999999989
 30
0.0
 40
0.610829
 50
347.687817
 51
33.424897000000001
  0
ARC
  5
E4
  8
DAIKO
 10
6.7499479999999989
 20
5.0403659999999997
 30
0.0
 40
0.8652459999999999
 50
347.5612680000001
 51
33.750440000000012
  0
ARC
  5
E5
  8
DAIKO
 10
4.4671649999999996
 20
6.1527890000000003
 30
0.0
 40
2.3934700000000002
 50
259.84967799999998
 51
270.597692
  0
ARC
  5
E6
  8
DAIKO
 10
4.0639219999999989
 20
3.993646
 30
0.0
 40
0.19774
 50
240.393745
 51
264.61382800000001
  0
ARC
  5
E7
  8
DAIKO
 10
3.9709419999999991
 20
3.836776
 30
0.0
 40
0.015772
 50
106.298784
 51
252.62320800000001
  0
ARC
  5
E8
  8
DAIKO
 10
4.119152999999999
 20
3.513633
 30
0.0
 40
0.371123
 50
97.076425999999984
 51
114.28554
  0
ARC
  5
E9
  8
DAIKO
 10
4.5508550000000003
 20
0.397149
 30
0.0
 40
3.5173320000000001
 50
90.956605999999994
 51
97.801075999999995
  0
ARC
  5
EA
  8
DAIKO
 10
4.706256999999999
 20
0.9080429999999999
 30
0.0
 40
3.005990999999999
 50
82.292691000000005
 51
89.690446999999992
  0
ARC
  5
EB
  8
DAIKO
 10
5.0439660000000002
 20
3.3005989999999992
 30
0.0
 40
0.589919
 50
70.995356999999998
 51
83.631772999999995
  0
ARC
  5
EC
  8
DAIKO
 10
5.2213760000000002
 20
3.815455
 30
0.0
 40
0.045354
 50
38.862454
 51
71.097073999999992
  0
ARC
  5
ED
  8
DAIKO
 10
5.246770999999999
 20
3.8363649999999998
 30
0.0
 40
0.012465
 50
302.657084
 51
37.261617999999999
  0
ARC
  5
EE
  8
DAIKO
 10
5.1614500000000003
 20
3.975512999999999
 30
0.0
 40
0.175685
 50
283.67276399999997
 51
301.59637199999997
  0
ARC
  5
EF
  8
DAIKO
 10
4.6935149999999997
 20
6.6391749999999989
 30
0.0
 40
2.8797919999999988
 50
270.7182509999999
 51
280.18980699999997
  0
ARC
  5
F0
  8
DAIKO
 10
2.6348139999999991
 20
0.6942300000000001
 30
0.0
 40
0.263752
 50
256.48868799999991
 51
308.27570700000001
  0
ARC
  5
F1
  8
DAIKO
 10
3.4730519999999991
 20
0.740373
 30
0.0
 40
0.236972
 50
248.040908
 51
306.18991199999999
  0
ARC
  5
F2
  8
DAIKO
 10
4.6073149999999989
 20
0.7588960000000001
 30
0.0
 40
0.230029
 50
239.95167900000001
 51
300.04832099999999
  0
ARC
  5
F3
  8
DAIKO
 10
5.7387589999999991
 20
0.7152750000000001
 30
0.0
 40
0.21545
 50
230.461082
 51
295.111423
  0
ARC
  5
F4
  8
DAIKO
 10
6.5770330000000001
 20
0.681557
 30
0.0
 40
0.252143
 50
230.436609
 51
284.79899499999999
  0
ARC
  5
F5
  8
DAIKO
 10
6.1260699999999986
 20
-2.3890509999999989
 30
0.0
 40
2.8533699999999991
 50
75.830100999999999
 51
83.373597999999987
  0
ARC
  5
F6
  8
DAIKO
 10
4.8525619999999989
 20
-14.9567
 30
0.0
 40
15.485127
 50
84.059018999999992
 51
88.966243999999975
  0
ARC
  5
F7
  8
DAIKO
 10
4.6028409999999997
 20
-22.329550000000001
 30
0.0
 40
22.861581000000001
 50
88.673861000000002
 51
92.309256999999974
  0
ARC
  5
F8
  8
DAIKO
 10
4.1149629999999986
 20
-11.838053
 30
0.0
 40
12.359116
 50
92.009101999999999
 51
95.226912000000027
  0
ARC
  5
F9
  8
DAIKO
 10
3.5955870000000001
 20
-6.0419359999999989
 30
0.0
 40
6.5397939999999997
 50
95.321638000000007
 51
99.623131999999998
  0
ARC
  5
FA
  8
DAIKO
 10
4.1921860000000004
 20
-11.80297
 30
0.0
 40
12.097082
 50
91.598694999999964
 51
97.853186999999991
  0
ARC
  5
FB
  8
DAIKO
 10
4.6265409999999996
 20
-19.406372000000001
 30
0.0
 40
19.710894
 50
85.419216000000006
 51
92.244191999999984
  0
ARC
  5
FC
  8
DAIKO
 10
5.8108579999999996
 20
-4.6689910000000001
 30
0.0
 40
4.9260039999999989
 50
79.830485999999993
 51
85.460378999999989
  0
ARC
  5
FD
  8
DAIKO
 10
4.607302999999999
 20
23.959015000000001
 30
0.0
 40
23.719739000000001
 50
267.79269099999999
 51
272.20730900000001
  0
ARC
  5
FE
  8
DAIKO
 10
72.362300000000005
 20
547.90618499999994
 30
0.0
 40
552.206414
 50
262.72326500000003
 51
262.81051000000002
  0
ARC
  5
FF
  8
DAIKO
 10
4.6089539999999989
 20
22.228194999999999
 30
0.0
 40
22.228194999999999
 50
266.50263899999999
 51
273.40589299999999
  0
ARC
  5
100
  8
DAIKO
 10
5.6921509999999991
 20
5.611508999999999
 30
0.0
 40
5.5773010000000003
 50
272.43913400000002
 51
280.491893
  0
ARC
  5
101
  8
DAIKO
 10
6.1995639999999987
 20
2.5907450000000001
 30
0.0
 40
2.5151639999999991
 50
281.6569740000001
 51
284.43902700000001
  0
ARC
  5
102
  8
DAIKO
 10
9.0227559999999993
 20
44.608457000000001
 30
0.0
 40
0.229197
 50
292.62327400000009
 51
317.80766299999999
  0
ARC
  5
103
  8
DAIKO
 10
9.1676520000000004
 20
44.494314000000003
 30
0.0
 40
0.046948
 50
302.05244299999998
 51
59.576166999999998
  0
LINE
  5
104
  8
DAIKO
 10
4.7532290000000001
 20
8.9637080000000005
 30
0.0
 11
4.7532290000000001
 21
9.6725390000000004
 31
0.0
  0
LINE
  5
105
  8
DAIKO
 10
4.4614010000000004
 20
9.6725390000000004
 30
0.0
 11
4.4614010000000004
 21
8.9637080000000005
 31
0.0
  0
LINE
  5
106
  8
DAIKO
 10
3.8957160000000002
 20
8.7348359999999996
 30
0.0
 11
3.4641349999999989
 21
8.3062729999999991
 31
0.0
  0
LINE
  5
107
  8
DAIKO
 10
5.7504730000000004
 20
8.3062679999999993
 30
0.0
 11
5.3188930000000001
 21
8.734827000000001
 31
0.0
  0
LINE
  5
108
  8
DAIKO
 10
3.0865409999999991
 20
7.5850479999999987
 30
0.0
 11
3.072886
 21
6.8314630000000003
 31
0.0
  0
LINE
  5
109
  8
DAIKO
 10
6.1417440000000001
 20
6.8314630000000003
 30
0.0
 11
6.1280720000000004
 21
7.5850339999999994
 31
0.0
  0
LINE
  5
10A
  8
DAIKO
 10
6.1430790000000002
 20
6.8314630000000003
 30
0.0
 11
6.1413589999999987
 21
6.6561089999999989
 31
0.0
  0
LINE
  5
10B
  8
DAIKO
 10
5.0040199999999988
 20
9.7207319999999982
 30
0.0
 11
6.3060439999999991
 21
5.6439379999999986
 31
0.0
  0
LINE
  5
10C
  8
DAIKO
 10
3.0732710000000001
 20
6.6561089999999989
 30
0.0
 11
3.071550999999999
 21
6.8314630000000003
 31
0.0
  0
LINE
  5
10D
  8
DAIKO
 10
5.2599130000000001
 20
3.8367199999999988
 30
0.0
 11
5.294435
 21
6.0635059999999994
 31
0.0
  0
LINE
  5
10E
  8
DAIKO
 10
3.9201699999999988
 20
6.063521999999999
 30
0.0
 11
3.954717
 21
3.8367199999999988
 31
0.0
  0
LINE
  5
10F
  8
DAIKO
 10
7.7150949999999989
 20
5.2468760000000003
 30
0.0
 11
6.8005509999999987
 21
6.7746849999999998
 31
0.0
  0
LINE
  5
110
  8
DAIKO
 10
2.4140779999999991
 20
6.7746849999999998
 30
0.0
 11
1.4995350000000001
 21
5.2468760000000003
 31
0.0
  0
LINE
  5
111
  8
DAIKO
 10
1.3194529999999991
 20
5.3905370000000001
 30
0.0
 11
3.8783489999999992
 21
9.6743030000000001
 31
0.0
  0
LINE
  5
112
  8
DAIKO
 10
4.8324590000000001
 20
9.6411699999999971
 30
0.0
 11
6.0868529999999987
 21
5.6439379999999986
 31
0.0
  0
LINE
  5
113
  8
DAIKO
 10
4.7224969999999988
 20
9.6725390000000004
 30
0.0
 11
4.7224969999999988
 21
0.5597820000000001
 31
0.0
  0
LINE
  5
114
  8
DAIKO
 10
4.4921319999999989
 20
0.5597820000000001
 30
0.0
 11
4.4921319999999989
 21
9.6725390000000004
 31
0.0
  0
LINE
  5
115
  8
DAIKO
 10
7.2838619999999992
 20
5.3774160000000002
 30
0.0
 11
5.0207949999999988
 21
9.6999910000000007
 31
0.0
  0
LINE
  5
116
  8
DAIKO
 10
5.2424220000000004
 20
9.6951820000000009
 30
0.0
 11
7.4693699999999987
 21
5.521077
 31
0.0
  0
LINE
  5
117
  8
DAIKO
 10
5.3368029999999989
 20
9.6725390000000004
 30
0.0
 11
7.8951770000000003
 21
5.3905370000000001
 31
0.0
  0
LINE
  5
118
  8
DAIKO
 10
2.502349999999999
 20
0.4058340000000001
 30
0.0
 11
2.278986999999999
 21
0.3494709999999999
 31
0.0
  0
LINE
  5
119
  8
DAIKO
 10
2.278986999999999
 20
0.3494709999999999
 30
0.0
 11
1.175265
 21
4.7234559999999988
 31
0.0
  0
LINE
  5
11A
  8
DAIKO
 10
1.398544
 20
4.7801530000000003
 30
0.0
 11
2.502349999999999
 21
0.4058340000000001
 31
0.0
  0
LINE
  5
11B
  8
DAIKO
 10
6.935642999999998
 20
0.3494709999999999
 30
0.0
 11
6.7122789999999988
 21
0.4058340000000001
 31
0.0
  0
LINE
  5
11C
  8
DAIKO
 10
8.0393650000000001
 20
4.7234559999999988
 30
0.0
 11
6.935642999999998
 21
0.3494709999999999
 31
0.0
  0
LINE
  5
11D
  8
DAIKO
 10
6.7122789999999988
 20
0.4058340000000001
 30
0.0
 11
7.8160850000000002
 21
4.7801530000000003
 31
0.0
  0
LINE
  5
11E
  8
DAIKO
 10
6.4163879999999986
 20
0.4869800000000001
 30
0.0
 11
7.370838
 21
4.9106930000000002
 31
0.0
  0
LINE
  5
11F
  8
DAIKO
 10
7.5948839999999986
 20
4.8539959999999986
 30
0.0
 11
6.641438
 21
0.437778
 31
0.0
  0
LINE
  5
120
  8
DAIKO
 10
6.380541
 20
4.976856999999999
 30
0.0
 11
5.8301920000000003
 21
0.520594
 31
0.0
  0
LINE
  5
121
  8
DAIKO
 10
6.1517369999999998
 20
4.976856999999999
 30
0.0
 11
5.601602999999999
 21
0.5491220000000001
 31
0.0
  0
LINE
  5
122
  8
DAIKO
 10
3.3844379999999989
 20
0.520594
 30
0.0
 11
2.8340890000000001
 21
5.2031439999999991
 31
0.0
  0
LINE
  5
123
  8
DAIKO
 10
3.6130269999999989
 20
0.5491220000000001
 30
0.0
 11
3.062892999999999
 21
5.2031439999999991
 31
0.0
  0
LINE
  5
124
  8
DAIKO
 10
1.8437909999999991
 20
4.9106930000000002
 30
0.0
 11
2.7982409999999991
 21
0.4869800000000001
 31
0.0
  0
LINE
  5
125
  8
DAIKO
 10
2.5731919999999988
 20
0.437778
 30
0.0
 11
1.619745999999999
 21
4.8539959999999986
 31
0.0
  0
LINE
  5
126
  8
DAIKO
 10
4.7532290000000001
 20
24.223917
 30
0.0
 11
4.7532290000000001
 21
44.145046999999998
 31
0.0
  0
LINE
  5
127
  8
DAIKO
 10
4.4614010000000004
 20
44.144423000000003
 30
0.0
 11
4.4614010000000004
 21
24.223917
 31
0.0
  0
LINE
  5
128
  8
DAIKO
 10
5.137141999999999
 20
44.145046999999998
 30
0.0
 11
5.137141999999999
 21
44.494022999999999
 31
0.0
  0
LINE
  5
129
  8
DAIKO
 10
1.458982999999999
 20
49.331684000000003
 30
0.0
 11
1.458982999999999
 21
45.355770999999997
 31
0.0
  0
LINE
  5
12A
  8
DAIKO
 10
7.7556219999999989
 20
45.355770999999997
 30
0.0
 11
7.7556219999999989
 21
49.331684000000003
 31
0.0
  0
LINE
  5
12B
  8
DAIKO
 10
9.2145989999999998
 20
45.03154099999999
 30
0.0
 11
9.2145989999999998
 21
44.494022999999999
 31
0.0
  0
LINE
  5
12C
  8
DAIKO
 10
5.3368029999999989
 20
23.909737
 30
0.0
 11
5.3368029999999989
 21
9.9029039999999995
 31
0.0
  0
LINE
  5
12D
  8
DAIKO
 10
5.0296500000000002
 20
23.950313000000001
 30
0.0
 11
5.0296500000000002
 21
9.9029039999999995
 31
0.0
  0
LINE
  5
12E
  8
DAIKO
 10
5.2545019999999987
 20
23.932379999999998
 30
0.0
 11
5.2545019999999987
 21
9.9029039999999995
 31
0.0
  0
LINE
  5
12F
  8
DAIKO
 10
4.7992860000000004
 20
23.950294
 30
0.0
 11
4.7992860000000004
 21
9.9029039999999995
 31
0.0
  0
LINE
  5
130
  8
DAIKO
 10
4.7532290000000001
 20
9.9029039999999995
 30
0.0
 11
4.7532290000000001
 21
23.993552999999999
 31
0.0
  0
LINE
  5
131
  8
DAIKO
 10
4.4614010000000004
 20
23.993552999999999
 30
0.0
 11
4.4614010000000004
 21
9.9029039999999995
 31
0.0
  0
LINE
  5
132
  8
DAIKO
 10
4.4921319999999989
 20
9.9029039999999995
 30
0.0
 11
4.4921319999999989
 21
23.948131
 31
0.0
  0
LINE
  5
133
  8
DAIKO
 10
4.7224969999999988
 20
23.948129000000002
 30
0.0
 11
4.7224969999999988
 21
9.9029039999999995
 31
0.0
  0
LINE
  5
134
  8
DAIKO
 10
3.8778019999999991
 20
9.9029039999999995
 30
0.0
 11
3.8778019999999991
 21
23.909737
 31
0.0
  0
LINE
  5
135
  8
DAIKO
 10
3.9601029999999988
 20
9.9029039999999995
 30
0.0
 11
3.9601029999999988
 21
23.932379999999998
 31
0.0
  0
LINE
  5
136
  8
DAIKO
 10
4.1849550000000004
 20
9.9029039999999995
 30
0.0
 11
4.1849550000000004
 21
23.950313000000001
 31
0.0
  0
LINE
  5
137
  8
DAIKO
 10
4.4153199999999986
 20
9.9029039999999995
 30
0.0
 11
4.4153199999999986
 21
23.950294
 31
0.0
  0
LINE
  5
138
  8
DAIKO
 10
3.1277529999999989
 20
5.8702249999999987
 30
0.0
 11
4.3821469999999989
 21
9.6411699999999971
 31
0.0
  0
LINE
  5
139
  8
DAIKO
 10
2.908561999999999
 20
5.8702249999999987
 30
0.0
 11
4.210585
 21
9.7207319999999982
 31
0.0
  0
LINE
  5
13A
  8
DAIKO
 10
4.19381
 20
9.6999910000000007
 30
0.0
 11
1.9307439999999989
 21
5.3774160000000002
 31
0.0
  0
LINE
  5
13B
  8
DAIKO
 10
4.0774639999999991
 20
44.494022999999999
 30
0.0
 11
4.0774639999999991
 21
44.145046999999998
 31
0.0
  0
LINE
  5
13C
  8
DAIKO
 10
0.000006
 20
44.494022999999999
 30
0.0
 11
0.000006
 21
45.03154099999999
 31
0.0
  0
LINE
  5
13D
  8
DAIKO
 10
1.7452599999999989
 20
5.521077
 30
0.0
 11
3.9854569999999989
 21
9.7017959999999999
 31
0.0
  0
TEXT
  5
13E
  8
DAIKO
 10
0.0
 20
-10.0
 30
0.0
 40
3.0
  1
DPN-40658Y
  7
BIGFONT
  0
ENDSEC
  0
EOF
